ISO-10303-21;
HEADER;
/* C_Disc_D8.0mm_W5.0mm_P5.00mm.step 3D STEP model for use in ECAD systems
 * Copyright (C) 2017, kicad StepUp
 * 
 * This program is free software: you can redistribute it and/or modify
 * it under the terms of the GNU General Public License as published by
 * the Free Software Foundation, either version 3 of the License, or
 * any later version.
 * 
 * This program is distributed in the hope that it will be useful,
 * but WITHOUT ANY WARRANTY; without even the implied warranty of
 * MERCHANTABILITY or FITNESS FOR A PARTICULAR PURPOSE.  See the
 * GNU General Public License for more details.
 * 
 * You should have received a copy of the GNU General Public License
 * along with this program.  If not, see http://www.gnu.org/licenses/.
 * 
 * As a special exception, if you create a design which uses this symbol,
 * and embed this symbol or unaltered portions of this symbol into the design,
 * this symbol does not by itself cause the resulting design to be covered by
 * the GNU General Public License.
 * This exception does not however invalidate any other reasons why the design
 * itself might be covered by the GNU General Public License. 
 * If you modify this symbol, you may extend this exception to your version of the symbol,
 * but you are not obligated to do so.
 * If you do not wish to do so, delete this exception statement from your version
 * Risk disclaimer
 * *USE 3D CAD DATA AT YOUR OWN RISK*
 * *DO NOT RELY UPON ANY INFORMATION FOUND HERE WITHOUT INDEPENDENT VERIFICATION.*
 * 
 */

FILE_DESCRIPTION(
/* description */ ('model of C_Disc_D8.0mm_W5.0mm_P5.00mm'),
/* implementation_level */ '2;1');

FILE_NAME(
/* name */ 'C_Disc_D8.0mm_W5.0mm_P5.00mm.step',
/* time_stamp */ '2017-07-29T01:50:49',
/* author */ ('kicad StepUp','ksu'),
/* organization */ ('FreeCAD'),
/* preprocessor_version */ 'OCC',
/* originating_system */ 'kicad StepUp',
/* authorisation */ '');

FILE_SCHEMA(('AUTOMOTIVE_DESIGN_CC2 { 1 2 10303 214 -1 1 5 4 }'));
ENDSEC;

DATA;
#1 = APPLICATION_PROTOCOL_DEFINITION('committee draft',
'automotive_design',1997,#2);
#2 = APPLICATION_CONTEXT(
'core data for automotive mechanical design processes');
#3 = SHAPE_DEFINITION_REPRESENTATION(#4,#10);
#4 = PRODUCT_DEFINITION_SHAPE('','',#5);
#5 = PRODUCT_DEFINITION('design','',#6,#9);
#6 = PRODUCT_DEFINITION_FORMATION('','',#7);
#7 = PRODUCT('C_Disc_D80mm_W50mm_P500mm','C_Disc_D80mm_W50mm_P500mm','',
(#8));
#8 = MECHANICAL_CONTEXT('',#2,'mechanical');
#9 = PRODUCT_DEFINITION_CONTEXT('part definition',#2,'design');
#10 = ADVANCED_BREP_SHAPE_REPRESENTATION('',(#11,#15),#329);
#11 = AXIS2_PLACEMENT_3D('',#12,#13,#14);
#12 = CARTESIAN_POINT('',(0.,0.,0.));
#13 = DIRECTION('',(0.,0.,1.));
#14 = DIRECTION('',(1.,0.,-0.));
#15 = MANIFOLD_SOLID_BREP('',#16);
#16 = CLOSED_SHELL('',(#17,#34,#139,#227,#293,#320));
#17 = ADVANCED_FACE('',(#18),#29,.F.);
#18 = FACE_BOUND('',#19,.F.);
#19 = EDGE_LOOP('',(#20));
#20 = ORIENTED_EDGE('',*,*,#21,.T.);
#21 = EDGE_CURVE('',#22,#22,#24,.T.);
#22 = VERTEX_POINT('',#23);
#23 = CARTESIAN_POINT('',(-2.5,-0.35,-2.));
#24 = CIRCLE('',#25,0.35);
#25 = AXIS2_PLACEMENT_3D('',#26,#27,#28);
#26 = CARTESIAN_POINT('',(-2.5,0.,-2.));
#27 = DIRECTION('',(-0.,0.,1.));
#28 = DIRECTION('',(1.110223024625E-16,-1.,0.));
#29 = PLANE('',#30);
#30 = AXIS2_PLACEMENT_3D('',#31,#32,#33);
#31 = CARTESIAN_POINT('',(-2.5,0.,-2.));
#32 = DIRECTION('',(0.,0.,1.));
#33 = DIRECTION('',(1.110223024625E-16,-1.,0.));
#34 = ADVANCED_FACE('',(#35),#134,.T.);
#35 = FACE_BOUND('',#36,.F.);
#36 = EDGE_LOOP('',(#37,#38,#46,#65,#108,#133));
#37 = ORIENTED_EDGE('',*,*,#21,.F.);
#38 = ORIENTED_EDGE('',*,*,#39,.T.);
#39 = EDGE_CURVE('',#22,#40,#42,.T.);
#40 = VERTEX_POINT('',#41);
#41 = CARTESIAN_POINT('',(-2.5,-0.35,1.225543529639));
#42 = LINE('',#43,#44);
#43 = CARTESIAN_POINT('',(-2.5,-0.35,-2.));
#44 = VECTOR('',#45,1.);
#45 = DIRECTION('',(0.,0.,1.));
#46 = ORIENTED_EDGE('',*,*,#47,.T.);
#47 = EDGE_CURVE('',#40,#48,#50,.T.);
#48 = VERTEX_POINT('',#49);
#49 = CARTESIAN_POINT('',(-2.15,8.881784197001E-16,0.726945004895));
#50 = B_SPLINE_CURVE_WITH_KNOTS('',7,(#51,#52,#53,#54,#55,#56,#57,#58,
#59,#60,#61,#62,#63,#64),.UNSPECIFIED.,.F.,.F.,(8,6,8),(0.,
0.350382737447,1.),.UNSPECIFIED.);
#51 = CARTESIAN_POINT('',(-2.5,-0.35,1.225543529639));
#52 = CARTESIAN_POINT('',(-2.472307891981,-0.349999997466,1.201458880659
));
#53 = CARTESIAN_POINT('',(-2.44498091905,-0.347443773919,1.176193087268)
);
#54 = CARTESIAN_POINT('',(-2.418215685942,-0.342452798424,1.150041281909
));
#55 = CARTESIAN_POINT('',(-2.392185711979,-0.335137363201,1.123256178232
));
#56 = CARTESIAN_POINT('',(-2.367050125979,-0.325598217979,1.096057869049
));
#57 = CARTESIAN_POINT('',(-2.342962361167,-0.313928204347,1.068643624286
));
#58 = CARTESIAN_POINT('',(-2.277652319777,-0.274787251395,0.990312324201
));
#59 = CARTESIAN_POINT('',(-2.239424560244,-0.242369650069,0.939389500394
));
#60 = CARTESIAN_POINT('',(-2.20630778513,-0.203511799447,0.88952850753)
);
#61 = CARTESIAN_POINT('',(-2.179437033198,-0.158738981196,0.841866271685
));
#62 = CARTESIAN_POINT('',(-2.160176309695,-0.108860547689,0.797773761609
));
#63 = CARTESIAN_POINT('',(-2.15,-5.525247554488E-02,0.75888706557));
#64 = CARTESIAN_POINT('',(-2.15,1.110223024625E-15,0.726945004895));
#65 = ORIENTED_EDGE('',*,*,#66,.T.);
#66 = EDGE_CURVE('',#48,#67,#69,.T.);
#67 = VERTEX_POINT('',#68);
#68 = CARTESIAN_POINT('',(-2.85,8.881784197001E-16,1.293311559863));
#69 = B_SPLINE_CURVE_WITH_KNOTS('',7,(#70,#71,#72,#73,#74,#75,#76,#77,
#78,#79,#80,#81,#82,#83,#84,#85,#86,#87,#88,#89,#90,#91,#92,#93,#94,
#95,#96,#97,#98,#99,#100,#101,#102,#103,#104,#105,#106,#107),
.UNSPECIFIED.,.F.,.F.,(8,6,6,6,6,6,8),(0.,0.340156536856,
0.607765792776,0.678250211773,0.801918251598,0.927242820961,1.),
.UNSPECIFIED.);
#70 = CARTESIAN_POINT('',(-2.15,-1.303738912427E-15,0.726945004895));
#71 = CARTESIAN_POINT('',(-2.15,5.534089290442E-02,0.758938180613));
#72 = CARTESIAN_POINT('',(-2.160208906957,0.109031673384,0.797897981824)
);
#73 = CARTESIAN_POINT('',(-2.179529266677,0.158977594956,0.842077285455)
);
#74 = CARTESIAN_POINT('',(-2.20647934264,0.2037975418,0.889832744783));
#75 = CARTESIAN_POINT('',(-2.239689083872,0.242679788529,0.939787636548)
);
#76 = CARTESIAN_POINT('',(-2.278018926526,0.275097633665,0.990800408426)
);
#77 = CARTESIAN_POINT('',(-2.354015602887,0.32048027958,1.081862067453)
);
#78 = CARTESIAN_POINT('',(-2.390019921903,0.336083630733,1.121857085451)
);
#79 = CARTESIAN_POINT('',(-2.42810639071,0.347065087601,1.161213259372)
);
#80 = CARTESIAN_POINT('',(-2.467813891373,0.353123223317,1.199311089932)
);
#81 = CARTESIAN_POINT('',(-2.508618441864,0.35389804859,1.23537154106));
#82 = CARTESIAN_POINT('',(-2.549862601786,0.348997517037,1.268405858273)
);
#83 = CARTESIAN_POINT('',(-2.601425174128,0.33516682545,1.304775322221)
);
#84 = CARTESIAN_POINT('',(-2.612141014678,0.331865011362,1.312060205759)
);
#85 = CARTESIAN_POINT('',(-2.622805684543,0.328138967882,1.319024863052)
);
#86 = CARTESIAN_POINT('',(-2.633399592247,0.323983695661,1.325644704693)
);
#87 = CARTESIAN_POINT('',(-2.643901154482,0.319395551455,1.331894129994)
);
#88 = CARTESIAN_POINT('',(-2.654286943659,0.314372820928,1.337747155916)
);
#89 = CARTESIAN_POINT('',(-2.682506952569,0.299342568426,1.352706783553)
);
#90 = CARTESIAN_POINT('',(-2.700052172869,0.28843136858,1.360938021473)
);
#91 = CARTESIAN_POINT('',(-2.717025036723,0.27618975464,1.367728896193)
);
#92 = CARTESIAN_POINT('',(-2.733267530362,0.262651662984,1.372941293073)
);
#93 = CARTESIAN_POINT('',(-2.748614283246,0.247889781018,1.376461612387)
);
#94 = CARTESIAN_POINT('',(-2.762906485039,0.232022412824,1.378221139621)
);
#95 = CARTESIAN_POINT('',(-2.789292100962,0.198183123073,1.37821284535)
);
#96 = CARTESIAN_POINT('',(-2.801360602116,0.180176751455,1.376397462063)
);
#97 = CARTESIAN_POINT('',(-2.812074454059,0.161369067128,1.372763576202)
);
#98 = CARTESIAN_POINT('',(-2.82134559445,0.141950707458,1.367374930512)
);
#99 = CARTESIAN_POINT('',(-2.829135046413,0.122110515556,1.360345818113)
);
#100 = CARTESIAN_POINT('',(-2.835443399949,0.102022621804,1.351820204737
));
#101 = CARTESIAN_POINT('',(-2.84311507138,7.012327861098E-02,
1.336220578981));
#102 = CARTESIAN_POINT('',(-2.845443178687,5.837253845105E-02,
1.330036720813));
#103 = CARTESIAN_POINT('',(-2.847286968262,4.661597750915E-02,
1.323427608256));
#104 = CARTESIAN_POINT('',(-2.84865438648,3.487899575248E-02,
1.316422391871));
#105 = CARTESIAN_POINT('',(-2.849555147095,2.31843657428E-02,
1.309049865011));
#106 = CARTESIAN_POINT('',(-2.85,1.155221360573E-02,1.30133767926));
#107 = CARTESIAN_POINT('',(-2.85,-1.33226762955E-15,1.293311559863));
#108 = ORIENTED_EDGE('',*,*,#109,.T.);
#109 = EDGE_CURVE('',#67,#40,#110,.T.);
#110 = B_SPLINE_CURVE_WITH_KNOTS('',6,(#111,#112,#113,#114,#115,#116,
#117,#118,#119,#120,#121,#122,#123,#124,#125,#126,#127,#128,#129,
#130,#131,#132),.UNSPECIFIED.,.F.,.F.,(7,5,5,5,7),(0.,0.151949412011
,0.415048658171,0.752207921575,1.),.UNSPECIFIED.);
#111 = CARTESIAN_POINT('',(-2.85,1.276756478319E-15,1.293311559863));
#112 = CARTESIAN_POINT('',(-2.85,-1.343068028399E-02,1.302642779595));
#113 = CARTESIAN_POINT('',(-2.849381533201,-2.697249950462E-02,
1.311537547911));
#114 = CARTESIAN_POINT('',(-2.848125454075,-4.059521449369E-02,
1.319951309382));
#115 = CARTESIAN_POINT('',(-2.84621332085,-5.426245418769E-02,
1.327835082494));
#116 = CARTESIAN_POINT('',(-2.843629907631,-6.793178243502E-02,
1.335138152797));
#117 = CARTESIAN_POINT('',(-2.83471379458,-0.105142843782,1.35336434496)
);
#118 = CARTESIAN_POINT('',(-2.827018874604,-0.128600188782,
1.363031765258));
#119 = CARTESIAN_POINT('',(-2.817233900386,-0.151657760509,1.37054494138
));
#120 = CARTESIAN_POINT('',(-2.805372576549,-0.173997136588,1.37565520073
));
#121 = CARTESIAN_POINT('',(-2.791557494959,-0.195272457154,
1.378208321275));
#122 = CARTESIAN_POINT('',(-2.756153082855,-0.240690391395,
1.378228139721));
#123 = CARTESIAN_POINT('',(-2.733454382629,-0.263974618074,
1.374061077445));
#124 = CARTESIAN_POINT('',(-2.708457272868,-0.284388806724,
1.365725112287));
#125 = CARTESIAN_POINT('',(-2.681846517454,-0.301622660249,
1.353681176063));
#126 = CARTESIAN_POINT('',(-2.654215415265,-0.315644022643,1.3385283692)
);
#127 = CARTESIAN_POINT('',(-2.605293932297,-0.334524479212,
1.307768875541));
#128 = CARTESIAN_POINT('',(-2.584259640629,-0.340828767678,
1.293344273403));
#129 = CARTESIAN_POINT('',(-2.563084639887,-0.345472508317,
1.277731054956));
#130 = CARTESIAN_POINT('',(-2.541910069202,-0.348509267541,
1.261119874115));
#131 = CARTESIAN_POINT('',(-2.520851147988,-0.349999998092,
1.243678389814));
#132 = CARTESIAN_POINT('',(-2.5,-0.35,1.225543529639));
#133 = ORIENTED_EDGE('',*,*,#39,.F.);
#134 = CYLINDRICAL_SURFACE('',#135,0.35);
#135 = AXIS2_PLACEMENT_3D('',#136,#137,#138);
#136 = CARTESIAN_POINT('',(-2.5,0.,-2.));
#137 = DIRECTION('',(-0.,0.,-1.));
#138 = DIRECTION('',(1.110223024625E-16,-1.,0.));
#139 = ADVANCED_FACE('',(#140),#222,.T.);
#140 = FACE_BOUND('',#141,.T.);
#141 = EDGE_LOOP('',(#142,#153,#160,#161,#162,#171,#214,#221));
#142 = ORIENTED_EDGE('',*,*,#143,.F.);
#143 = EDGE_CURVE('',#144,#146,#148,.T.);
#144 = VERTEX_POINT('',#145);
#145 = CARTESIAN_POINT('',(-4.,8.881784197001E-16,4.1));
#146 = VERTEX_POINT('',#147);
#147 = CARTESIAN_POINT('',(-2.22044604925E-16,-2.5,4.1));
#148 = CIRCLE('',#149,4.45);
#149 = AXIS2_PLACEMENT_3D('',#150,#151,#152);
#150 = CARTESIAN_POINT('',(-1.33226762955E-15,1.95,4.1));
#151 = DIRECTION('',(0.,0.,1.));
#152 = DIRECTION('',(-0.898876404494,-0.438202247191,0.));
#153 = ORIENTED_EDGE('',*,*,#154,.T.);
#154 = EDGE_CURVE('',#144,#67,#155,.T.);
#155 = CIRCLE('',#156,4.);
#156 = AXIS2_PLACEMENT_3D('',#157,#158,#159);
#157 = CARTESIAN_POINT('',(0.,8.881784197001E-16,4.1));
#158 = DIRECTION('',(0.,-1.,0.));
#159 = DIRECTION('',(-1.,0.,0.));
#160 = ORIENTED_EDGE('',*,*,#109,.T.);
#161 = ORIENTED_EDGE('',*,*,#47,.T.);
#162 = ORIENTED_EDGE('',*,*,#163,.T.);
#163 = EDGE_CURVE('',#48,#164,#166,.T.);
#164 = VERTEX_POINT('',#165);
#165 = CARTESIAN_POINT('',(2.15,8.881784197001E-16,0.726945004895));
#166 = CIRCLE('',#167,4.);
#167 = AXIS2_PLACEMENT_3D('',#168,#169,#170);
#168 = CARTESIAN_POINT('',(0.,8.881784197001E-16,4.1));
#169 = DIRECTION('',(0.,-1.,0.));
#170 = DIRECTION('',(-1.,0.,0.));
#171 = ORIENTED_EDGE('',*,*,#172,.T.);
#172 = EDGE_CURVE('',#164,#173,#175,.T.);
#173 = VERTEX_POINT('',#174);
#174 = CARTESIAN_POINT('',(2.85,8.881784197001E-16,1.293311559863));
#175 = B_SPLINE_CURVE_WITH_KNOTS('',7,(#176,#177,#178,#179,#180,#181,
#182,#183,#184,#185,#186,#187,#188,#189,#190,#191,#192,#193,#194,
#195,#196,#197,#198,#199,#200,#201,#202,#203,#204,#205,#206,#207,
#208,#209,#210,#211,#212,#213),.UNSPECIFIED.,.F.,.F.,(8,6,6,6,6,6,8)
,(0.,0.340156536855,0.607765792775,0.678250211772,0.801918251597,
0.927242820961,1.),.UNSPECIFIED.);
#176 = CARTESIAN_POINT('',(2.15,1.110223024625E-15,0.726945004895));
#177 = CARTESIAN_POINT('',(2.15,-5.534089290441E-02,0.758938180613));
#178 = CARTESIAN_POINT('',(2.160208906957,-0.109031673384,0.797897981824
));
#179 = CARTESIAN_POINT('',(2.179529266677,-0.158977594956,0.842077285455
));
#180 = CARTESIAN_POINT('',(2.20647934264,-0.2037975418,0.889832744784));
#181 = CARTESIAN_POINT('',(2.239689083872,-0.242679788529,0.939787636548
));
#182 = CARTESIAN_POINT('',(2.278018926526,-0.275097633665,0.990800408426
));
#183 = CARTESIAN_POINT('',(2.354015602887,-0.32048027958,1.081862067453)
);
#184 = CARTESIAN_POINT('',(2.390019921903,-0.336083630733,1.121857085451
));
#185 = CARTESIAN_POINT('',(2.42810639071,-0.347065087601,1.161213259372)
);
#186 = CARTESIAN_POINT('',(2.467813891373,-0.353123223317,1.199311089932
));
#187 = CARTESIAN_POINT('',(2.508618441864,-0.35389804859,1.23537154106)
);
#188 = CARTESIAN_POINT('',(2.549862601786,-0.348997517037,1.268405858273
));
#189 = CARTESIAN_POINT('',(2.601425174128,-0.33516682545,1.304775322221)
);
#190 = CARTESIAN_POINT('',(2.612141014678,-0.331865011362,1.312060205759
));
#191 = CARTESIAN_POINT('',(2.622805684543,-0.328138967882,1.319024863052
));
#192 = CARTESIAN_POINT('',(2.633399592247,-0.323983695661,1.325644704693
));
#193 = CARTESIAN_POINT('',(2.643901154482,-0.319395551455,1.331894129994
));
#194 = CARTESIAN_POINT('',(2.654286943659,-0.314372820928,1.337747155916
));
#195 = CARTESIAN_POINT('',(2.682506952569,-0.299342568426,1.352706783553
));
#196 = CARTESIAN_POINT('',(2.700052172869,-0.28843136858,1.360938021473)
);
#197 = CARTESIAN_POINT('',(2.717025036723,-0.27618975464,1.367728896193)
);
#198 = CARTESIAN_POINT('',(2.733267530362,-0.262651662984,1.372941293073
));
#199 = CARTESIAN_POINT('',(2.748614283246,-0.247889781018,1.376461612387
));
#200 = CARTESIAN_POINT('',(2.762906485039,-0.232022412824,1.378221139621
));
#201 = CARTESIAN_POINT('',(2.789292100962,-0.198183123073,1.37821284535)
);
#202 = CARTESIAN_POINT('',(2.801360602116,-0.180176751455,1.376397462063
));
#203 = CARTESIAN_POINT('',(2.812074454059,-0.161369067128,1.372763576202
));
#204 = CARTESIAN_POINT('',(2.82134559445,-0.141950707457,1.367374930512)
);
#205 = CARTESIAN_POINT('',(2.829135046413,-0.122110515556,1.360345818113
));
#206 = CARTESIAN_POINT('',(2.835443399949,-0.102022621804,1.351820204737
));
#207 = CARTESIAN_POINT('',(2.84311507138,-7.012327861097E-02,
1.336220578981));
#208 = CARTESIAN_POINT('',(2.845443178687,-5.837253845107E-02,
1.330036720813));
#209 = CARTESIAN_POINT('',(2.847286968262,-4.661597750916E-02,
1.323427608257));
#210 = CARTESIAN_POINT('',(2.84865438648,-3.487899575246E-02,
1.316422391871));
#211 = CARTESIAN_POINT('',(2.849555147095,-2.318436574279E-02,
1.309049865011));
#212 = CARTESIAN_POINT('',(2.85,-1.155221360575E-02,1.30133767926));
#213 = CARTESIAN_POINT('',(2.85,1.110223024625E-15,1.293311559863));
#214 = ORIENTED_EDGE('',*,*,#215,.T.);
#215 = EDGE_CURVE('',#173,#144,#216,.T.);
#216 = CIRCLE('',#217,4.);
#217 = AXIS2_PLACEMENT_3D('',#218,#219,#220);
#218 = CARTESIAN_POINT('',(0.,8.881784197001E-16,4.1));
#219 = DIRECTION('',(0.,-1.,0.));
#220 = DIRECTION('',(-1.,0.,0.));
#221 = ORIENTED_EDGE('',*,*,#143,.T.);
#222 = SPHERICAL_SURFACE('',#223,4.45);
#223 = AXIS2_PLACEMENT_3D('',#224,#225,#226);
#224 = CARTESIAN_POINT('',(-1.33226762955E-15,1.95,4.1));
#225 = DIRECTION('',(0.,-1.,0.));
#226 = DIRECTION('',(-1.,0.,0.));
#227 = ADVANCED_FACE('',(#228),#288,.T.);
#228 = FACE_BOUND('',#229,.T.);
#229 = EDGE_LOOP('',(#230,#239,#240,#241,#268,#285,#286,#287));
#230 = ORIENTED_EDGE('',*,*,#231,.F.);
#231 = EDGE_CURVE('',#232,#144,#234,.T.);
#232 = VERTEX_POINT('',#233);
#233 = CARTESIAN_POINT('',(0.,2.5,4.1));
#234 = CIRCLE('',#235,4.45);
#235 = AXIS2_PLACEMENT_3D('',#236,#237,#238);
#236 = CARTESIAN_POINT('',(-9.436895709314E-16,-1.95,4.1));
#237 = DIRECTION('',(0.,-0.,1.));
#238 = DIRECTION('',(2.120650721194E-16,1.,0.));
#239 = ORIENTED_EDGE('',*,*,#231,.T.);
#240 = ORIENTED_EDGE('',*,*,#215,.F.);
#241 = ORIENTED_EDGE('',*,*,#242,.T.);
#242 = EDGE_CURVE('',#173,#243,#245,.T.);
#243 = VERTEX_POINT('',#244);
#244 = CARTESIAN_POINT('',(2.5,0.35,1.225543529639));
#245 = B_SPLINE_CURVE_WITH_KNOTS('',6,(#246,#247,#248,#249,#250,#251,
#252,#253,#254,#255,#256,#257,#258,#259,#260,#261,#262,#263,#264,
#265,#266,#267),.UNSPECIFIED.,.F.,.F.,(7,5,5,5,7),(0.,0.151949412011
,0.415048658172,0.752207921575,1.),.UNSPECIFIED.);
#246 = CARTESIAN_POINT('',(2.85,-1.311748576644E-15,1.293311559863));
#247 = CARTESIAN_POINT('',(2.85,1.343068028399E-02,1.302642779595));
#248 = CARTESIAN_POINT('',(2.849381533201,2.697249950462E-02,
1.311537547911));
#249 = CARTESIAN_POINT('',(2.848125454075,4.059521449369E-02,
1.319951309382));
#250 = CARTESIAN_POINT('',(2.84621332085,5.426245418769E-02,
1.327835082494));
#251 = CARTESIAN_POINT('',(2.843629907631,6.793178243502E-02,
1.335138152797));
#252 = CARTESIAN_POINT('',(2.83471379458,0.105142843782,1.35336434496));
#253 = CARTESIAN_POINT('',(2.827018874604,0.128600188782,1.363031765258)
);
#254 = CARTESIAN_POINT('',(2.817233900386,0.151657760509,1.37054494138)
);
#255 = CARTESIAN_POINT('',(2.805372576549,0.173997136588,1.37565520073)
);
#256 = CARTESIAN_POINT('',(2.791557494959,0.195272457154,1.378208321275)
);
#257 = CARTESIAN_POINT('',(2.756153082855,0.240690391395,1.378228139721)
);
#258 = CARTESIAN_POINT('',(2.733454382629,0.263974618074,1.374061077445)
);
#259 = CARTESIAN_POINT('',(2.708457272868,0.284388806724,1.365725112287)
);
#260 = CARTESIAN_POINT('',(2.681846517454,0.301622660249,1.353681176063)
);
#261 = CARTESIAN_POINT('',(2.654215415265,0.315644022643,1.3385283692));
#262 = CARTESIAN_POINT('',(2.605293932297,0.334524479212,1.307768875541)
);
#263 = CARTESIAN_POINT('',(2.584259640629,0.340828767678,1.293344273403)
);
#264 = CARTESIAN_POINT('',(2.563084639887,0.345472508317,1.277731054956)
);
#265 = CARTESIAN_POINT('',(2.541910069202,0.348509267541,1.261119874115)
);
#266 = CARTESIAN_POINT('',(2.520851147988,0.349999998092,1.243678389814)
);
#267 = CARTESIAN_POINT('',(2.5,0.35,1.225543529639));
#268 = ORIENTED_EDGE('',*,*,#269,.T.);
#269 = EDGE_CURVE('',#243,#164,#270,.T.);
#270 = B_SPLINE_CURVE_WITH_KNOTS('',7,(#271,#272,#273,#274,#275,#276,
#277,#278,#279,#280,#281,#282,#283,#284),.UNSPECIFIED.,.F.,.F.,(8,6,
8),(0.,0.350382737447,1.),.UNSPECIFIED.);
#271 = CARTESIAN_POINT('',(2.5,0.35,1.225543529639));
#272 = CARTESIAN_POINT('',(2.472307891981,0.349999997466,1.201458880659)
);
#273 = CARTESIAN_POINT('',(2.44498091905,0.347443773919,1.176193087268)
);
#274 = CARTESIAN_POINT('',(2.418215685942,0.342452798424,1.150041281909)
);
#275 = CARTESIAN_POINT('',(2.392185711979,0.335137363201,1.123256178232)
);
#276 = CARTESIAN_POINT('',(2.367050125979,0.325598217979,1.096057869049)
);
#277 = CARTESIAN_POINT('',(2.342962361167,0.313928204347,1.068643624286)
);
#278 = CARTESIAN_POINT('',(2.277652319777,0.274787251395,0.990312324201)
);
#279 = CARTESIAN_POINT('',(2.239424560244,0.242369650069,0.939389500394)
);
#280 = CARTESIAN_POINT('',(2.20630778513,0.203511799447,0.88952850753));
#281 = CARTESIAN_POINT('',(2.179437033198,0.158738981196,0.841866271685)
);
#282 = CARTESIAN_POINT('',(2.160176309695,0.108860547689,0.797773761609)
);
#283 = CARTESIAN_POINT('',(2.15,5.525247554483E-02,0.75888706557));
#284 = CARTESIAN_POINT('',(2.15,-1.33226762955E-15,0.726945004895));
#285 = ORIENTED_EDGE('',*,*,#163,.F.);
#286 = ORIENTED_EDGE('',*,*,#66,.T.);
#287 = ORIENTED_EDGE('',*,*,#154,.F.);
#288 = SPHERICAL_SURFACE('',#289,4.45);
#289 = AXIS2_PLACEMENT_3D('',#290,#291,#292);
#290 = CARTESIAN_POINT('',(-9.436895709314E-16,-1.95,4.1));
#291 = DIRECTION('',(0.,-1.,0.));
#292 = DIRECTION('',(-1.,0.,0.));
#293 = ADVANCED_FACE('',(#294),#315,.T.);
#294 = FACE_BOUND('',#295,.F.);
#295 = EDGE_LOOP('',(#296,#305,#311,#312,#313,#314));
#296 = ORIENTED_EDGE('',*,*,#297,.F.);
#297 = EDGE_CURVE('',#298,#298,#300,.T.);
#298 = VERTEX_POINT('',#299);
#299 = CARTESIAN_POINT('',(2.5,0.35,-2.));
#300 = CIRCLE('',#301,0.35);
#301 = AXIS2_PLACEMENT_3D('',#302,#303,#304);
#302 = CARTESIAN_POINT('',(2.5,0.,-2.));
#303 = DIRECTION('',(0.,-0.,1.));
#304 = DIRECTION('',(1.144237745222E-17,1.,0.));
#305 = ORIENTED_EDGE('',*,*,#306,.T.);
#306 = EDGE_CURVE('',#298,#243,#307,.T.);
#307 = LINE('',#308,#309);
#308 = CARTESIAN_POINT('',(2.5,0.35,-2.));
#309 = VECTOR('',#310,1.);
#310 = DIRECTION('',(0.,0.,1.));
#311 = ORIENTED_EDGE('',*,*,#269,.T.);
#312 = ORIENTED_EDGE('',*,*,#172,.T.);
#313 = ORIENTED_EDGE('',*,*,#242,.T.);
#314 = ORIENTED_EDGE('',*,*,#306,.F.);
#315 = CYLINDRICAL_SURFACE('',#316,0.35);
#316 = AXIS2_PLACEMENT_3D('',#317,#318,#319);
#317 = CARTESIAN_POINT('',(2.5,0.,-2.));
#318 = DIRECTION('',(0.,-0.,-1.));
#319 = DIRECTION('',(1.144237745222E-17,1.,0.));
#320 = ADVANCED_FACE('',(#321),#324,.F.);
#321 = FACE_BOUND('',#322,.F.);
#322 = EDGE_LOOP('',(#323));
#323 = ORIENTED_EDGE('',*,*,#297,.T.);
#324 = PLANE('',#325);
#325 = AXIS2_PLACEMENT_3D('',#326,#327,#328);
#326 = CARTESIAN_POINT('',(2.5,0.,-2.));
#327 = DIRECTION('',(0.,0.,1.));
#328 = DIRECTION('',(1.144237745222E-17,1.,0.));
#329 = ( GEOMETRIC_REPRESENTATION_CONTEXT(3)
GLOBAL_UNCERTAINTY_ASSIGNED_CONTEXT((#333)) GLOBAL_UNIT_ASSIGNED_CONTEXT
((#330,#331,#332)) REPRESENTATION_CONTEXT('Context #1',
'3D Context with UNIT and UNCERTAINTY') );
#330 = ( LENGTH_UNIT() NAMED_UNIT(*) SI_UNIT(.MILLI.,.METRE.) );
#331 = ( NAMED_UNIT(*) PLANE_ANGLE_UNIT() SI_UNIT($,.RADIAN.) );
#332 = ( NAMED_UNIT(*) SI_UNIT($,.STERADIAN.) SOLID_ANGLE_UNIT() );
#333 = UNCERTAINTY_MEASURE_WITH_UNIT(LENGTH_MEASURE(2.E-07),#330,
'distance_accuracy_value','confusion accuracy');
#334 = PRODUCT_TYPE('part',$,(#7));
#335 = MECHANICAL_DESIGN_GEOMETRIC_PRESENTATION_REPRESENTATION('',(#336,
#344,#351,#359,#366,#373),#329);
#336 = STYLED_ITEM('color',(#337),#17);
#337 = PRESENTATION_STYLE_ASSIGNMENT((#338));
#338 = SURFACE_STYLE_USAGE(.BOTH.,#339);
#339 = SURFACE_SIDE_STYLE('',(#340));
#340 = SURFACE_STYLE_FILL_AREA(#341);
#341 = FILL_AREA_STYLE('',(#342));
#342 = FILL_AREA_STYLE_COLOUR('',#343);
#343 = COLOUR_RGB('',0.824000000954,0.819999992847,0.78100001812);
#344 = STYLED_ITEM('color',(#345),#34);
#345 = PRESENTATION_STYLE_ASSIGNMENT((#346));
#346 = SURFACE_STYLE_USAGE(.BOTH.,#347);
#347 = SURFACE_SIDE_STYLE('',(#348));
#348 = SURFACE_STYLE_FILL_AREA(#349);
#349 = FILL_AREA_STYLE('',(#350));
#350 = FILL_AREA_STYLE_COLOUR('',#343);
#351 = STYLED_ITEM('color',(#352),#139);
#352 = PRESENTATION_STYLE_ASSIGNMENT((#353));
#353 = SURFACE_STYLE_USAGE(.BOTH.,#354);
#354 = SURFACE_SIDE_STYLE('',(#355));
#355 = SURFACE_STYLE_FILL_AREA(#356);
#356 = FILL_AREA_STYLE('',(#357));
#357 = FILL_AREA_STYLE_COLOUR('',#358);
#358 = COLOUR_RGB('',0.809000015259,0.425999999046,0.148000001907);
#359 = STYLED_ITEM('color',(#360),#227);
#360 = PRESENTATION_STYLE_ASSIGNMENT((#361));
#361 = SURFACE_STYLE_USAGE(.BOTH.,#362);
#362 = SURFACE_SIDE_STYLE('',(#363));
#363 = SURFACE_STYLE_FILL_AREA(#364);
#364 = FILL_AREA_STYLE('',(#365));
#365 = FILL_AREA_STYLE_COLOUR('',#358);
#366 = STYLED_ITEM('color',(#367),#293);
#367 = PRESENTATION_STYLE_ASSIGNMENT((#368));
#368 = SURFACE_STYLE_USAGE(.BOTH.,#369);
#369 = SURFACE_SIDE_STYLE('',(#370));
#370 = SURFACE_STYLE_FILL_AREA(#371);
#371 = FILL_AREA_STYLE('',(#372));
#372 = FILL_AREA_STYLE_COLOUR('',#343);
#373 = STYLED_ITEM('color',(#374),#320);
#374 = PRESENTATION_STYLE_ASSIGNMENT((#375));
#375 = SURFACE_STYLE_USAGE(.BOTH.,#376);
#376 = SURFACE_SIDE_STYLE('',(#377));
#377 = SURFACE_STYLE_FILL_AREA(#378);
#378 = FILL_AREA_STYLE('',(#379));
#379 = FILL_AREA_STYLE_COLOUR('',#343);
ENDSEC;
END-ISO-10303-21;
