ISO-10303-21;
HEADER;
/* C_Disc_D7.5mm_W5.0mm_P5.00mm.step 3D STEP model for use in ECAD systems
 * Copyright (C) 2017, kicad StepUp
 * 
 * This program is free software: you can redistribute it and/or modify
 * it under the terms of the GNU General Public License as published by
 * the Free Software Foundation, either version 3 of the License, or
 * any later version.
 * 
 * This program is distributed in the hope that it will be useful,
 * but WITHOUT ANY WARRANTY; without even the implied warranty of
 * MERCHANTABILITY or FITNESS FOR A PARTICULAR PURPOSE.  See the
 * GNU General Public License for more details.
 * 
 * You should have received a copy of the GNU General Public License
 * along with this program.  If not, see http://www.gnu.org/licenses/.
 * 
 * As a special exception, if you create a design which uses this symbol,
 * and embed this symbol or unaltered portions of this symbol into the design,
 * this symbol does not by itself cause the resulting design to be covered by
 * the GNU General Public License.
 * This exception does not however invalidate any other reasons why the design
 * itself might be covered by the GNU General Public License. 
 * If you modify this symbol, you may extend this exception to your version of the symbol,
 * but you are not obligated to do so.
 * If you do not wish to do so, delete this exception statement from your version
 * Risk disclaimer
 * *USE 3D CAD DATA AT YOUR OWN RISK*
 * *DO NOT RELY UPON ANY INFORMATION FOUND HERE WITHOUT INDEPENDENT VERIFICATION.*
 * 
 */

FILE_DESCRIPTION(
/* description */ ('model of C_Disc_D7.5mm_W5.0mm_P5.00mm'),
/* implementation_level */ '2;1');

FILE_NAME(
/* name */ 'C_Disc_D7.5mm_W5.0mm_P5.00mm.step',
/* time_stamp */ '2017-07-29T01:51:12',
/* author */ ('kicad StepUp','ksu'),
/* organization */ ('FreeCAD'),
/* preprocessor_version */ 'OCC',
/* originating_system */ 'kicad StepUp',
/* authorisation */ '');

FILE_SCHEMA(('AUTOMOTIVE_DESIGN_CC2 { 1 2 10303 214 -1 1 5 4 }'));
ENDSEC;

DATA;
#1 = APPLICATION_PROTOCOL_DEFINITION('committee draft',
'automotive_design',1997,#2);
#2 = APPLICATION_CONTEXT(
'core data for automotive mechanical design processes');
#3 = SHAPE_DEFINITION_REPRESENTATION(#4,#10);
#4 = PRODUCT_DEFINITION_SHAPE('','',#5);
#5 = PRODUCT_DEFINITION('design','',#6,#9);
#6 = PRODUCT_DEFINITION_FORMATION('','',#7);
#7 = PRODUCT('C_Disc_D75mm_W50mm_P500mm','C_Disc_D75mm_W50mm_P500mm','',
(#8));
#8 = MECHANICAL_CONTEXT('',#2,'mechanical');
#9 = PRODUCT_DEFINITION_CONTEXT('part definition',#2,'design');
#10 = ADVANCED_BREP_SHAPE_REPRESENTATION('',(#11,#15),#437);
#11 = AXIS2_PLACEMENT_3D('',#12,#13,#14);
#12 = CARTESIAN_POINT('',(0.,0.,0.));
#13 = DIRECTION('',(0.,0.,1.));
#14 = DIRECTION('',(1.,0.,-0.));
#15 = MANIFOLD_SOLID_BREP('',#16);
#16 = CLOSED_SHELL('',(#17,#34,#111,#169,#264,#334,#349,#391,#412,#428)
);
#17 = ADVANCED_FACE('',(#18),#29,.F.);
#18 = FACE_BOUND('',#19,.F.);
#19 = EDGE_LOOP('',(#20));
#20 = ORIENTED_EDGE('',*,*,#21,.T.);
#21 = EDGE_CURVE('',#22,#22,#24,.T.);
#22 = VERTEX_POINT('',#23);
#23 = CARTESIAN_POINT('',(-2.5,-0.35,-2.));
#24 = CIRCLE('',#25,0.35);
#25 = AXIS2_PLACEMENT_3D('',#26,#27,#28);
#26 = CARTESIAN_POINT('',(-2.5,0.,-2.));
#27 = DIRECTION('',(-0.,0.,1.));
#28 = DIRECTION('',(1.110223024625E-16,-1.,0.));
#29 = PLANE('',#30);
#30 = AXIS2_PLACEMENT_3D('',#31,#32,#33);
#31 = CARTESIAN_POINT('',(-2.5,0.,-2.));
#32 = DIRECTION('',(0.,0.,1.));
#33 = DIRECTION('',(1.110223024625E-16,-1.,0.));
#34 = ADVANCED_FACE('',(#35),#106,.T.);
#35 = FACE_BOUND('',#36,.F.);
#36 = EDGE_LOOP('',(#37,#38,#46,#55,#76,#98,#105));
#37 = ORIENTED_EDGE('',*,*,#21,.F.);
#38 = ORIENTED_EDGE('',*,*,#39,.T.);
#39 = EDGE_CURVE('',#22,#40,#42,.T.);
#40 = VERTEX_POINT('',#41);
#41 = CARTESIAN_POINT('',(-2.5,-0.35,1.275));
#42 = LINE('',#43,#44);
#43 = CARTESIAN_POINT('',(-2.5,-0.35,-2.));
#44 = VECTOR('',#45,1.);
#45 = DIRECTION('',(0.,0.,1.));
#46 = ORIENTED_EDGE('',*,*,#47,.T.);
#47 = EDGE_CURVE('',#40,#48,#50,.T.);
#48 = VERTEX_POINT('',#49);
#49 = CARTESIAN_POINT('',(-2.493166695095,-0.349933287848,1.275));
#50 = CIRCLE('',#51,0.35);
#51 = AXIS2_PLACEMENT_3D('',#52,#53,#54);
#52 = CARTESIAN_POINT('',(-2.5,0.,1.275));
#53 = DIRECTION('',(-0.,0.,1.));
#54 = DIRECTION('',(1.110223024625E-16,-1.,0.));
#55 = ORIENTED_EDGE('',*,*,#56,.T.);
#56 = EDGE_CURVE('',#48,#57,#59,.T.);
#57 = VERTEX_POINT('',#58);
#58 = CARTESIAN_POINT('',(-2.15,-4.440892098501E-16,0.777541700853));
#59 = B_SPLINE_CURVE_WITH_KNOTS('',8,(#60,#61,#62,#63,#64,#65,#66,#67,
#68,#69,#70,#71,#72,#73,#74,#75),.UNSPECIFIED.,.F.,.F.,(9,7,9),(0.,
0.264116106309,1.),.UNSPECIFIED.);
#60 = CARTESIAN_POINT('',(-2.493167305644,-0.34993329977,1.2750006));
#61 = CARTESIAN_POINT('',(-2.475556616055,-0.3495894381,1.257694185157)
);
#62 = CARTESIAN_POINT('',(-2.458083357231,-0.348234995823,1.240040917963
));
#63 = CARTESIAN_POINT('',(-2.440792290766,-0.345894519113,1.222108463804
));
#64 = CARTESIAN_POINT('',(-2.423726044869,-0.342590494626,1.20395853134)
);
#65 = CARTESIAN_POINT('',(-2.406925805716,-0.338343641104,1.185647870311
));
#66 = CARTESIAN_POINT('',(-2.390432008814,-0.333173200992,1.167229269329
));
#67 = CARTESIAN_POINT('',(-2.374285030355,-0.32709723204,1.148752553693)
);
#68 = CARTESIAN_POINT('',(-2.314617515172,-0.300728779072,1.078756934069
));
#69 = CARTESIAN_POINT('',(-2.273793130485,-0.274460682842,1.027254593004
));
#70 = CARTESIAN_POINT('',(-2.236825381333,-0.241698184589,0.97668059454)
);
#71 = CARTESIAN_POINT('',(-2.204680774537,-0.202726035888,0.927974926556
));
#72 = CARTESIAN_POINT('',(-2.178568985753,-0.157999176776,0.882282784198
));
#73 = CARTESIAN_POINT('',(-2.159869200706,-0.108300459571,0.840939091085
));
#74 = CARTESIAN_POINT('',(-2.15,-5.497676737137E-02,0.805500159733));
#75 = CARTESIAN_POINT('',(-2.15,-2.22044604925E-16,0.777541700853));
#76 = ORIENTED_EDGE('',*,*,#77,.T.);
#77 = EDGE_CURVE('',#57,#78,#80,.T.);
#78 = VERTEX_POINT('',#79);
#79 = CARTESIAN_POINT('',(-2.493166695095,0.349933287848,1.275));
#80 = B_SPLINE_CURVE_WITH_KNOTS('',6,(#81,#82,#83,#84,#85,#86,#87,#88,
#89,#90,#91,#92,#93,#94,#95,#96,#97),.UNSPECIFIED.,.F.,.F.,(7,5,5,7)
,(0.,0.354791270707,0.734823528643,1.),.UNSPECIFIED.);
#81 = CARTESIAN_POINT('',(-2.15,-4.488671834658E-16,0.777541700853));
#82 = CARTESIAN_POINT('',(-2.15,3.529966144182E-02,0.795493358982));
#83 = CARTESIAN_POINT('',(-2.154272247001,6.995198195837E-02,
0.816717907288));
#84 = CARTESIAN_POINT('',(-2.162522755122,0.103277798716,0.840716883626)
);
#85 = CARTESIAN_POINT('',(-2.174310892544,0.134780793159,0.8669680465));
#86 = CARTESIAN_POINT('',(-2.189201546096,0.164147786202,0.895021208254)
);
#87 = CARTESIAN_POINT('',(-2.225685446827,0.220102176248,0.956083835867)
);
#88 = CARTESIAN_POINT('',(-2.247673200351,0.246332543344,0.989292226631)
);
#89 = CARTESIAN_POINT('',(-2.2723079246,0.269590202982,1.02366320911));
#90 = CARTESIAN_POINT('',(-2.299160881625,0.2897003395,1.058782104338));
#91 = CARTESIAN_POINT('',(-2.327858285785,0.306527522374,1.094266489506)
);
#92 = CARTESIAN_POINT('',(-2.379138951718,0.329278356367,1.154462492746)
);
#93 = CARTESIAN_POINT('',(-2.400945950309,0.336959034211,1.179185367399)
);
#94 = CARTESIAN_POINT('',(-2.423367797331,0.34292138892,1.203755556314)
);
#95 = CARTESIAN_POINT('',(-2.446291396814,0.347112665877,1.228028422402)
);
#96 = CARTESIAN_POINT('',(-2.469600132771,0.349473133381,1.251840617062)
);
#97 = CARTESIAN_POINT('',(-2.493167305644,0.34993329977,1.2750006));
#98 = ORIENTED_EDGE('',*,*,#99,.T.);
#99 = EDGE_CURVE('',#78,#40,#100,.T.);
#100 = CIRCLE('',#101,0.35);
#101 = AXIS2_PLACEMENT_3D('',#102,#103,#104);
#102 = CARTESIAN_POINT('',(-2.5,0.,1.275));
#103 = DIRECTION('',(-0.,0.,1.));
#104 = DIRECTION('',(1.110223024625E-16,-1.,0.));
#105 = ORIENTED_EDGE('',*,*,#39,.F.);
#106 = CYLINDRICAL_SURFACE('',#107,0.35);
#107 = AXIS2_PLACEMENT_3D('',#108,#109,#110);
#108 = CARTESIAN_POINT('',(-2.5,0.,-2.));
#109 = DIRECTION('',(-0.,0.,-1.));
#110 = DIRECTION('',(1.110223024625E-16,-1.,0.));
#111 = ADVANCED_FACE('',(#112),#160,.F.);
#112 = FACE_BOUND('',#113,.F.);
#113 = EDGE_LOOP('',(#114,#123,#124,#143));
#114 = ORIENTED_EDGE('',*,*,#115,.F.);
#115 = EDGE_CURVE('',#40,#116,#118,.T.);
#116 = VERTEX_POINT('',#117);
#117 = CARTESIAN_POINT('',(-2.499968386525,-0.35,1.281652658542));
#118 = CIRCLE('',#119,0.7);
#119 = AXIS2_PLACEMENT_3D('',#120,#121,#122);
#120 = CARTESIAN_POINT('',(-1.8,-0.35,1.275));
#121 = DIRECTION('',(-1.110223024625E-16,1.,0.));
#122 = DIRECTION('',(-1.,-1.110223024625E-16,-3.172065784643E-16));
#123 = ORIENTED_EDGE('',*,*,#99,.F.);
#124 = ORIENTED_EDGE('',*,*,#125,.F.);
#125 = EDGE_CURVE('',#126,#78,#128,.T.);
#126 = VERTEX_POINT('',#127);
#127 = CARTESIAN_POINT('',(-2.842097735589,-4.440892098501E-16,
1.403578028761));
#128 = B_SPLINE_CURVE_WITH_KNOTS('',7,(#129,#130,#131,#132,#133,#134,
#135,#136,#137,#138,#139,#140,#141,#142),.UNSPECIFIED.,.F.,.F.,(8,6,
8),(0.,0.613587446079,1.),.UNSPECIFIED.);
#129 = CARTESIAN_POINT('',(-2.842097735589,-5.103313356309E-16,
1.403578028761));
#130 = CARTESIAN_POINT('',(-2.838771974711,4.825243869853E-02,
1.430532617455));
#131 = CARTESIAN_POINT('',(-2.827636726552,9.780502826341E-02,
1.450707303561));
#132 = CARTESIAN_POINT('',(-2.808726956459,0.146837101998,1.46281703842)
);
#133 = CARTESIAN_POINT('',(-2.782620997266,0.19314078802,1.465896232964)
);
#134 = CARTESIAN_POINT('',(-2.750579816992,0.23436357108,1.459620595706)
);
#135 = CARTESIAN_POINT('',(-2.714288879808,0.268687435344,1.444585720644
));
#136 = CARTESIAN_POINT('',(-2.650973530803,0.312211973931,1.408119454633
));
#137 = CARTESIAN_POINT('',(-2.625463158557,0.326029754715,1.391100108637
));
#138 = CARTESIAN_POINT('',(-2.599288110741,0.336679402065,1.371470931036
));
#139 = CARTESIAN_POINT('',(-2.572782394716,0.344164601241,1.34963217891)
);
#140 = CARTESIAN_POINT('',(-2.546187429451,0.348654019538,1.32600971392)
);
#141 = CARTESIAN_POINT('',(-2.519635969119,0.350450164238,1.30101196288)
);
#142 = CARTESIAN_POINT('',(-2.493166695095,0.349933287848,1.275));
#143 = ORIENTED_EDGE('',*,*,#144,.F.);
#144 = EDGE_CURVE('',#116,#126,#145,.T.);
#145 = B_SPLINE_CURVE_WITH_KNOTS('',7,(#146,#147,#148,#149,#150,#151,
#152,#153,#154,#155,#156,#157,#158,#159),.UNSPECIFIED.,.F.,.F.,(8,6,
8),(0.,0.383845470729,1.),.UNSPECIFIED.);
#146 = CARTESIAN_POINT('',(-2.499968386525,-0.35,1.281652658542));
#147 = CARTESIAN_POINT('',(-2.525906329586,-0.349999997868,
1.306900035816));
#148 = CARTESIAN_POINT('',(-2.551915167171,-0.347715836202,
1.331110664545));
#149 = CARTESIAN_POINT('',(-2.577945404897,-0.342801722674,
1.353939267383));
#150 = CARTESIAN_POINT('',(-2.603859789987,-0.334988543297,
1.374999763509));
#151 = CARTESIAN_POINT('',(-2.629421997924,-0.324133380719,
1.393893577338));
#152 = CARTESIAN_POINT('',(-2.654312580721,-0.31024638129,1.41024904481)
);
#153 = CARTESIAN_POINT('',(-2.716471959672,-0.266605354729,
1.445479035766));
#154 = CARTESIAN_POINT('',(-2.752185906141,-0.23228522623,1.459927436102
));
#155 = CARTESIAN_POINT('',(-2.783669008975,-0.191273853449,
1.465767442574));
#156 = CARTESIAN_POINT('',(-2.809296105277,-0.145354566069,
1.462448292606));
#157 = CARTESIAN_POINT('',(-2.827859666918,-9.680736289833E-02,
1.450299895273));
#158 = CARTESIAN_POINT('',(-2.838805347391,-4.776824477772E-02,
1.430262138939));
#159 = CARTESIAN_POINT('',(-2.842097735589,-2.22044604925E-16,
1.403578028761));
#160 = SURFACE_OF_REVOLUTION('',#161,#166);
#161 = CIRCLE('',#162,0.35);
#162 = AXIS2_PLACEMENT_3D('',#163,#164,#165);
#163 = CARTESIAN_POINT('',(-2.5,0.,1.275));
#164 = DIRECTION('',(-0.,0.,1.));
#165 = DIRECTION('',(1.110223024625E-16,-1.,0.));
#166 = AXIS1_PLACEMENT('',#167,#168);
#167 = CARTESIAN_POINT('',(-1.8,3.6,1.275));
#168 = DIRECTION('',(-1.110223024625E-16,1.,0.));
#169 = ADVANCED_FACE('',(#170),#259,.T.);
#170 = FACE_BOUND('',#171,.T.);
#171 = EDGE_LOOP('',(#172,#183,#184,#193,#212,#222,#243,#250,#251,#252)
);
#172 = ORIENTED_EDGE('',*,*,#173,.F.);
#173 = EDGE_CURVE('',#174,#176,#178,.T.);
#174 = VERTEX_POINT('',#175);
#175 = CARTESIAN_POINT('',(0.,2.5,3.85));
#176 = VERTEX_POINT('',#177);
#177 = CARTESIAN_POINT('',(-3.75,-4.440892098501E-16,3.85));
#178 = CIRCLE('',#179,4.0625);
#179 = AXIS2_PLACEMENT_3D('',#180,#181,#182);
#180 = CARTESIAN_POINT('',(1.498801083244E-15,-1.5625,3.85));
#181 = DIRECTION('',(0.,0.,1.));
#182 = DIRECTION('',(-3.689356512601E-16,1.,0.));
#183 = ORIENTED_EDGE('',*,*,#173,.T.);
#184 = ORIENTED_EDGE('',*,*,#185,.F.);
#185 = EDGE_CURVE('',#186,#176,#188,.T.);
#186 = VERTEX_POINT('',#187);
#187 = CARTESIAN_POINT('',(2.842097735589,-4.440892098501E-16,
1.403578028761));
#188 = CIRCLE('',#189,3.75);
#189 = AXIS2_PLACEMENT_3D('',#190,#191,#192);
#190 = CARTESIAN_POINT('',(0.,-4.440892098501E-16,3.85));
#191 = DIRECTION('',(0.,-1.,0.));
#192 = DIRECTION('',(-1.,0.,0.));
#193 = ORIENTED_EDGE('',*,*,#194,.F.);
#194 = EDGE_CURVE('',#195,#186,#197,.T.);
#195 = VERTEX_POINT('',#196);
#196 = CARTESIAN_POINT('',(2.499968386525,0.35,1.281652658542));
#197 = B_SPLINE_CURVE_WITH_KNOTS('',7,(#198,#199,#200,#201,#202,#203,
#204,#205,#206,#207,#208,#209,#210,#211),.UNSPECIFIED.,.F.,.F.,(8,6,
8),(0.,0.383845470729,1.),.UNSPECIFIED.);
#198 = CARTESIAN_POINT('',(2.499968386525,0.35,1.281652658542));
#199 = CARTESIAN_POINT('',(2.525906329586,0.349999997868,1.306900035816)
);
#200 = CARTESIAN_POINT('',(2.551915167171,0.347715836202,1.331110664545)
);
#201 = CARTESIAN_POINT('',(2.577945404897,0.342801722674,1.353939267383)
);
#202 = CARTESIAN_POINT('',(2.603859789987,0.334988543297,1.374999763509)
);
#203 = CARTESIAN_POINT('',(2.629421997924,0.324133380719,1.393893577338)
);
#204 = CARTESIAN_POINT('',(2.654312580721,0.31024638129,1.410249044811)
);
#205 = CARTESIAN_POINT('',(2.716471959672,0.266605354729,1.445479035766)
);
#206 = CARTESIAN_POINT('',(2.752185906141,0.23228522623,1.459927436102)
);
#207 = CARTESIAN_POINT('',(2.783669008975,0.191273853449,1.465767442574)
);
#208 = CARTESIAN_POINT('',(2.809296105277,0.145354566069,1.462448292606)
);
#209 = CARTESIAN_POINT('',(2.827859666918,9.680736289818E-02,
1.450299895273));
#210 = CARTESIAN_POINT('',(2.838805347391,4.776824477776E-02,
1.430262138939));
#211 = CARTESIAN_POINT('',(2.842097735589,-4.106092572603E-16,
1.403578028761));
#212 = ORIENTED_EDGE('',*,*,#213,.T.);
#213 = EDGE_CURVE('',#195,#214,#216,.T.);
#214 = VERTEX_POINT('',#215);
#215 = CARTESIAN_POINT('',(2.493166695095,0.349933287848,1.275));
#216 = B_SPLINE_CURVE_WITH_KNOTS('',4,(#217,#218,#219,#220,#221),
.UNSPECIFIED.,.F.,.F.,(5,5),(0.,1.),.PIECEWISE_BEZIER_KNOTS.);
#217 = CARTESIAN_POINT('',(2.499968386525,0.35,1.281652658542));
#218 = CARTESIAN_POINT('',(2.498267422354,0.34999999986,1.279996980275)
);
#219 = CARTESIAN_POINT('',(2.496566804818,0.349988774288,1.278336205547)
);
#220 = CARTESIAN_POINT('',(2.494866556752,0.349966481745,1.276670493051)
);
#221 = CARTESIAN_POINT('',(2.493166695095,0.349933287848,1.275));
#222 = ORIENTED_EDGE('',*,*,#223,.T.);
#223 = EDGE_CURVE('',#214,#224,#226,.T.);
#224 = VERTEX_POINT('',#225);
#225 = CARTESIAN_POINT('',(2.15,-4.440892098501E-16,0.777541700853));
#226 = B_SPLINE_CURVE_WITH_KNOTS('',8,(#227,#228,#229,#230,#231,#232,
#233,#234,#235,#236,#237,#238,#239,#240,#241,#242),.UNSPECIFIED.,.F.
,.F.,(9,7,9),(0.,0.264116106309,1.),.UNSPECIFIED.);
#227 = CARTESIAN_POINT('',(2.493167305644,0.34993329977,1.2750006));
#228 = CARTESIAN_POINT('',(2.475556616055,0.3495894381,1.257694185157));
#229 = CARTESIAN_POINT('',(2.458083357231,0.348234995823,1.240040917963)
);
#230 = CARTESIAN_POINT('',(2.440792290766,0.345894519113,1.222108463804)
);
#231 = CARTESIAN_POINT('',(2.423726044869,0.342590494626,1.20395853134)
);
#232 = CARTESIAN_POINT('',(2.406925805716,0.338343641104,1.185647870311)
);
#233 = CARTESIAN_POINT('',(2.390432008814,0.333173200992,1.167229269329)
);
#234 = CARTESIAN_POINT('',(2.374285030355,0.32709723204,1.148752553693)
);
#235 = CARTESIAN_POINT('',(2.314617515172,0.300728779072,1.078756934069)
);
#236 = CARTESIAN_POINT('',(2.273793130485,0.274460682842,1.027254593004)
);
#237 = CARTESIAN_POINT('',(2.236825381334,0.241698184589,0.97668059454)
);
#238 = CARTESIAN_POINT('',(2.204680774536,0.202726035888,0.927974926556)
);
#239 = CARTESIAN_POINT('',(2.178568985754,0.157999176776,0.882282784198)
);
#240 = CARTESIAN_POINT('',(2.159869200705,0.108300459571,0.840939091085)
);
#241 = CARTESIAN_POINT('',(2.15,5.497676737134E-02,0.805500159733));
#242 = CARTESIAN_POINT('',(2.15,-4.440892098501E-16,0.777541700853));
#243 = ORIENTED_EDGE('',*,*,#244,.F.);
#244 = EDGE_CURVE('',#57,#224,#245,.T.);
#245 = CIRCLE('',#246,3.75);
#246 = AXIS2_PLACEMENT_3D('',#247,#248,#249);
#247 = CARTESIAN_POINT('',(0.,-4.440892098501E-16,3.85));
#248 = DIRECTION('',(0.,-1.,0.));
#249 = DIRECTION('',(-1.,0.,0.));
#250 = ORIENTED_EDGE('',*,*,#77,.T.);
#251 = ORIENTED_EDGE('',*,*,#125,.F.);
#252 = ORIENTED_EDGE('',*,*,#253,.F.);
#253 = EDGE_CURVE('',#176,#126,#254,.T.);
#254 = CIRCLE('',#255,3.75);
#255 = AXIS2_PLACEMENT_3D('',#256,#257,#258);
#256 = CARTESIAN_POINT('',(0.,-4.440892098501E-16,3.85));
#257 = DIRECTION('',(0.,-1.,0.));
#258 = DIRECTION('',(-1.,0.,0.));
#259 = SPHERICAL_SURFACE('',#260,4.0625);
#260 = AXIS2_PLACEMENT_3D('',#261,#262,#263);
#261 = CARTESIAN_POINT('',(1.498801083244E-15,-1.5625,3.85));
#262 = DIRECTION('',(0.,-1.,0.));
#263 = DIRECTION('',(-1.,0.,0.));
#264 = ADVANCED_FACE('',(#265),#329,.T.);
#265 = FACE_BOUND('',#266,.T.);
#266 = EDGE_LOOP('',(#267,#276,#277,#278,#286,#287,#288,#310,#327,#328)
);
#267 = ORIENTED_EDGE('',*,*,#268,.F.);
#268 = EDGE_CURVE('',#176,#269,#271,.T.);
#269 = VERTEX_POINT('',#270);
#270 = CARTESIAN_POINT('',(-3.330669073875E-16,-2.5,3.85));
#271 = CIRCLE('',#272,4.0625);
#272 = AXIS2_PLACEMENT_3D('',#273,#274,#275);
#273 = CARTESIAN_POINT('',(2.331468351713E-15,1.5625,3.85));
#274 = DIRECTION('',(0.,0.,1.));
#275 = DIRECTION('',(-0.923076923077,-0.384615384615,0.));
#276 = ORIENTED_EDGE('',*,*,#253,.T.);
#277 = ORIENTED_EDGE('',*,*,#144,.F.);
#278 = ORIENTED_EDGE('',*,*,#279,.T.);
#279 = EDGE_CURVE('',#116,#48,#280,.T.);
#280 = B_SPLINE_CURVE_WITH_KNOTS('',4,(#281,#282,#283,#284,#285),
.UNSPECIFIED.,.F.,.F.,(5,5),(0.,1.),.PIECEWISE_BEZIER_KNOTS.);
#281 = CARTESIAN_POINT('',(-2.499968386525,-0.35,1.281652658542));
#282 = CARTESIAN_POINT('',(-2.498267422354,-0.34999999986,1.279996980275
));
#283 = CARTESIAN_POINT('',(-2.496566804818,-0.349988774288,
1.278336205547));
#284 = CARTESIAN_POINT('',(-2.494866556752,-0.349966481745,
1.276670493051));
#285 = CARTESIAN_POINT('',(-2.493166695095,-0.349933287848,1.275));
#286 = ORIENTED_EDGE('',*,*,#56,.T.);
#287 = ORIENTED_EDGE('',*,*,#244,.T.);
#288 = ORIENTED_EDGE('',*,*,#289,.T.);
#289 = EDGE_CURVE('',#224,#290,#292,.T.);
#290 = VERTEX_POINT('',#291);
#291 = CARTESIAN_POINT('',(2.493166695095,-0.349933287848,1.275));
#292 = B_SPLINE_CURVE_WITH_KNOTS('',6,(#293,#294,#295,#296,#297,#298,
#299,#300,#301,#302,#303,#304,#305,#306,#307,#308,#309),
.UNSPECIFIED.,.F.,.F.,(7,5,5,7),(0.,0.354791270707,0.734823528643,1.),
.UNSPECIFIED.);
#293 = CARTESIAN_POINT('',(2.15,-2.22044604925E-16,0.777541700853));
#294 = CARTESIAN_POINT('',(2.15,-3.529966144181E-02,0.795493358982));
#295 = CARTESIAN_POINT('',(2.154272247001,-6.99519819584E-02,
0.816717907288));
#296 = CARTESIAN_POINT('',(2.162522755122,-0.103277798716,0.840716883626
));
#297 = CARTESIAN_POINT('',(2.174310892544,-0.134780793159,0.8669680465)
);
#298 = CARTESIAN_POINT('',(2.189201546096,-0.164147786202,0.895021208254
));
#299 = CARTESIAN_POINT('',(2.225685446827,-0.220102176248,0.956083835867
));
#300 = CARTESIAN_POINT('',(2.247673200351,-0.246332543344,0.989292226631
));
#301 = CARTESIAN_POINT('',(2.2723079246,-0.269590202982,1.02366320911));
#302 = CARTESIAN_POINT('',(2.299160881625,-0.2897003395,1.058782104339)
);
#303 = CARTESIAN_POINT('',(2.327858285785,-0.306527522374,1.094266489506
));
#304 = CARTESIAN_POINT('',(2.379138951718,-0.329278356367,1.154462492746
));
#305 = CARTESIAN_POINT('',(2.400945950309,-0.336959034211,1.179185367399
));
#306 = CARTESIAN_POINT('',(2.423367797331,-0.34292138892,1.203755556314)
);
#307 = CARTESIAN_POINT('',(2.446291396814,-0.347112665877,1.228028422402
));
#308 = CARTESIAN_POINT('',(2.469600132771,-0.349473133381,1.251840617062
));
#309 = CARTESIAN_POINT('',(2.493167305644,-0.34993329977,1.2750006));
#310 = ORIENTED_EDGE('',*,*,#311,.F.);
#311 = EDGE_CURVE('',#186,#290,#312,.T.);
#312 = B_SPLINE_CURVE_WITH_KNOTS('',7,(#313,#314,#315,#316,#317,#318,
#319,#320,#321,#322,#323,#324,#325,#326),.UNSPECIFIED.,.F.,.F.,(8,6,
8),(0.,0.613587446079,1.),.UNSPECIFIED.);
#313 = CARTESIAN_POINT('',(2.842097735589,-2.775557561563E-16,
1.403578028761));
#314 = CARTESIAN_POINT('',(2.838771974711,-4.82524386985E-02,
1.430532617455));
#315 = CARTESIAN_POINT('',(2.827636726552,-9.780502826361E-02,
1.450707303561));
#316 = CARTESIAN_POINT('',(2.808726956459,-0.146837101998,1.46281703842)
);
#317 = CARTESIAN_POINT('',(2.782620997266,-0.193140788021,1.465896232964
));
#318 = CARTESIAN_POINT('',(2.750579816992,-0.23436357108,1.459620595706)
);
#319 = CARTESIAN_POINT('',(2.714288879808,-0.268687435344,1.444585720644
));
#320 = CARTESIAN_POINT('',(2.650973530803,-0.312211973931,1.408119454633
));
#321 = CARTESIAN_POINT('',(2.625463158557,-0.326029754715,1.391100108637
));
#322 = CARTESIAN_POINT('',(2.59928811074,-0.336679402065,1.371470931036)
);
#323 = CARTESIAN_POINT('',(2.572782394716,-0.344164601241,1.34963217891)
);
#324 = CARTESIAN_POINT('',(2.546187429451,-0.348654019538,1.32600971392)
);
#325 = CARTESIAN_POINT('',(2.519635969119,-0.350450164238,1.30101196288)
);
#326 = CARTESIAN_POINT('',(2.493166695095,-0.349933287848,1.275));
#327 = ORIENTED_EDGE('',*,*,#185,.T.);
#328 = ORIENTED_EDGE('',*,*,#268,.T.);
#329 = SPHERICAL_SURFACE('',#330,4.0625);
#330 = AXIS2_PLACEMENT_3D('',#331,#332,#333);
#331 = CARTESIAN_POINT('',(2.331468351713E-15,1.5625,3.85));
#332 = DIRECTION('',(0.,-1.,0.));
#333 = DIRECTION('',(-1.,0.,0.));
#334 = ADVANCED_FACE('',(#335),#340,.F.);
#335 = FACE_BOUND('',#336,.F.);
#336 = EDGE_LOOP('',(#337,#338,#339));
#337 = ORIENTED_EDGE('',*,*,#47,.F.);
#338 = ORIENTED_EDGE('',*,*,#115,.T.);
#339 = ORIENTED_EDGE('',*,*,#279,.T.);
#340 = SURFACE_OF_REVOLUTION('',#341,#346);
#341 = CIRCLE('',#342,0.35);
#342 = AXIS2_PLACEMENT_3D('',#343,#344,#345);
#343 = CARTESIAN_POINT('',(-2.5,0.,1.275));
#344 = DIRECTION('',(-0.,0.,1.));
#345 = DIRECTION('',(1.110223024625E-16,-1.,0.));
#346 = AXIS1_PLACEMENT('',#347,#348);
#347 = CARTESIAN_POINT('',(-1.8,3.6,1.275));
#348 = DIRECTION('',(-1.110223024625E-16,1.,0.));
#349 = ADVANCED_FACE('',(#350),#386,.T.);
#350 = FACE_BOUND('',#351,.F.);
#351 = EDGE_LOOP('',(#352,#361,#369,#376,#377,#378,#385));
#352 = ORIENTED_EDGE('',*,*,#353,.F.);
#353 = EDGE_CURVE('',#354,#354,#356,.T.);
#354 = VERTEX_POINT('',#355);
#355 = CARTESIAN_POINT('',(2.5,0.35,-2.));
#356 = CIRCLE('',#357,0.35);
#357 = AXIS2_PLACEMENT_3D('',#358,#359,#360);
#358 = CARTESIAN_POINT('',(2.5,0.,-2.));
#359 = DIRECTION('',(0.,-0.,1.));
#360 = DIRECTION('',(1.144237745222E-17,1.,0.));
#361 = ORIENTED_EDGE('',*,*,#362,.T.);
#362 = EDGE_CURVE('',#354,#363,#365,.T.);
#363 = VERTEX_POINT('',#364);
#364 = CARTESIAN_POINT('',(2.5,0.35,1.275));
#365 = LINE('',#366,#367);
#366 = CARTESIAN_POINT('',(2.5,0.35,-2.));
#367 = VECTOR('',#368,1.);
#368 = DIRECTION('',(0.,0.,1.));
#369 = ORIENTED_EDGE('',*,*,#370,.T.);
#370 = EDGE_CURVE('',#363,#214,#371,.T.);
#371 = CIRCLE('',#372,0.35);
#372 = AXIS2_PLACEMENT_3D('',#373,#374,#375);
#373 = CARTESIAN_POINT('',(2.5,0.,1.275));
#374 = DIRECTION('',(0.,-0.,1.));
#375 = DIRECTION('',(1.144237745222E-17,1.,0.));
#376 = ORIENTED_EDGE('',*,*,#223,.T.);
#377 = ORIENTED_EDGE('',*,*,#289,.T.);
#378 = ORIENTED_EDGE('',*,*,#379,.T.);
#379 = EDGE_CURVE('',#290,#363,#380,.T.);
#380 = CIRCLE('',#381,0.35);
#381 = AXIS2_PLACEMENT_3D('',#382,#383,#384);
#382 = CARTESIAN_POINT('',(2.5,0.,1.275));
#383 = DIRECTION('',(0.,-0.,1.));
#384 = DIRECTION('',(1.144237745222E-17,1.,0.));
#385 = ORIENTED_EDGE('',*,*,#362,.F.);
#386 = CYLINDRICAL_SURFACE('',#387,0.35);
#387 = AXIS2_PLACEMENT_3D('',#388,#389,#390);
#388 = CARTESIAN_POINT('',(2.5,0.,-2.));
#389 = DIRECTION('',(0.,-0.,-1.));
#390 = DIRECTION('',(1.144237745222E-17,1.,0.));
#391 = ADVANCED_FACE('',(#392),#403,.F.);
#392 = FACE_BOUND('',#393,.F.);
#393 = EDGE_LOOP('',(#394,#395,#402));
#394 = ORIENTED_EDGE('',*,*,#370,.F.);
#395 = ORIENTED_EDGE('',*,*,#396,.T.);
#396 = EDGE_CURVE('',#363,#195,#397,.T.);
#397 = CIRCLE('',#398,0.7);
#398 = AXIS2_PLACEMENT_3D('',#399,#400,#401);
#399 = CARTESIAN_POINT('',(1.8,0.35,1.275));
#400 = DIRECTION('',(-1.144237745222E-17,-1.,0.));
#401 = DIRECTION('',(1.,-1.144237745222E-17,-3.172065784643E-16));
#402 = ORIENTED_EDGE('',*,*,#213,.T.);
#403 = SURFACE_OF_REVOLUTION('',#404,#409);
#404 = CIRCLE('',#405,0.35);
#405 = AXIS2_PLACEMENT_3D('',#406,#407,#408);
#406 = CARTESIAN_POINT('',(2.5,0.,1.275));
#407 = DIRECTION('',(0.,-0.,1.));
#408 = DIRECTION('',(1.144237745222E-17,1.,0.));
#409 = AXIS1_PLACEMENT('',#410,#411);
#410 = CARTESIAN_POINT('',(1.8,-3.6,1.275));
#411 = DIRECTION('',(-1.144237745222E-17,-1.,0.));
#412 = ADVANCED_FACE('',(#413),#419,.F.);
#413 = FACE_BOUND('',#414,.F.);
#414 = EDGE_LOOP('',(#415,#416,#417,#418));
#415 = ORIENTED_EDGE('',*,*,#396,.F.);
#416 = ORIENTED_EDGE('',*,*,#379,.F.);
#417 = ORIENTED_EDGE('',*,*,#311,.F.);
#418 = ORIENTED_EDGE('',*,*,#194,.F.);
#419 = SURFACE_OF_REVOLUTION('',#420,#425);
#420 = CIRCLE('',#421,0.35);
#421 = AXIS2_PLACEMENT_3D('',#422,#423,#424);
#422 = CARTESIAN_POINT('',(2.5,0.,1.275));
#423 = DIRECTION('',(0.,-0.,1.));
#424 = DIRECTION('',(1.144237745222E-17,1.,0.));
#425 = AXIS1_PLACEMENT('',#426,#427);
#426 = CARTESIAN_POINT('',(1.8,-3.6,1.275));
#427 = DIRECTION('',(-1.144237745222E-17,-1.,0.));
#428 = ADVANCED_FACE('',(#429),#432,.F.);
#429 = FACE_BOUND('',#430,.F.);
#430 = EDGE_LOOP('',(#431));
#431 = ORIENTED_EDGE('',*,*,#353,.T.);
#432 = PLANE('',#433);
#433 = AXIS2_PLACEMENT_3D('',#434,#435,#436);
#434 = CARTESIAN_POINT('',(2.5,0.,-2.));
#435 = DIRECTION('',(0.,0.,1.));
#436 = DIRECTION('',(1.144237745222E-17,1.,0.));
#437 = ( GEOMETRIC_REPRESENTATION_CONTEXT(3)
GLOBAL_UNCERTAINTY_ASSIGNED_CONTEXT((#441)) GLOBAL_UNIT_ASSIGNED_CONTEXT
((#438,#439,#440)) REPRESENTATION_CONTEXT('Context #1',
'3D Context with UNIT and UNCERTAINTY') );
#438 = ( LENGTH_UNIT() NAMED_UNIT(*) SI_UNIT(.MILLI.,.METRE.) );
#439 = ( NAMED_UNIT(*) PLANE_ANGLE_UNIT() SI_UNIT($,.RADIAN.) );
#440 = ( NAMED_UNIT(*) SI_UNIT($,.STERADIAN.) SOLID_ANGLE_UNIT() );
#441 = UNCERTAINTY_MEASURE_WITH_UNIT(LENGTH_MEASURE(2.E-06),#438,
'distance_accuracy_value','confusion accuracy');
#442 = PRODUCT_TYPE('part',$,(#7));
#443 = MECHANICAL_DESIGN_GEOMETRIC_PRESENTATION_REPRESENTATION('',(#444,
#452,#459,#466,#474,#481,#488,#495,#502,#509),#437);
#444 = STYLED_ITEM('color',(#445),#17);
#445 = PRESENTATION_STYLE_ASSIGNMENT((#446));
#446 = SURFACE_STYLE_USAGE(.BOTH.,#447);
#447 = SURFACE_SIDE_STYLE('',(#448));
#448 = SURFACE_STYLE_FILL_AREA(#449);
#449 = FILL_AREA_STYLE('',(#450));
#450 = FILL_AREA_STYLE_COLOUR('',#451);
#451 = COLOUR_RGB('',0.824000000954,0.819999992847,0.78100001812);
#452 = STYLED_ITEM('color',(#453),#34);
#453 = PRESENTATION_STYLE_ASSIGNMENT((#454));
#454 = SURFACE_STYLE_USAGE(.BOTH.,#455);
#455 = SURFACE_SIDE_STYLE('',(#456));
#456 = SURFACE_STYLE_FILL_AREA(#457);
#457 = FILL_AREA_STYLE('',(#458));
#458 = FILL_AREA_STYLE_COLOUR('',#451);
#459 = STYLED_ITEM('color',(#460),#111);
#460 = PRESENTATION_STYLE_ASSIGNMENT((#461));
#461 = SURFACE_STYLE_USAGE(.BOTH.,#462);
#462 = SURFACE_SIDE_STYLE('',(#463));
#463 = SURFACE_STYLE_FILL_AREA(#464);
#464 = FILL_AREA_STYLE('',(#465));
#465 = FILL_AREA_STYLE_COLOUR('',#451);
#466 = STYLED_ITEM('color',(#467),#169);
#467 = PRESENTATION_STYLE_ASSIGNMENT((#468));
#468 = SURFACE_STYLE_USAGE(.BOTH.,#469);
#469 = SURFACE_SIDE_STYLE('',(#470));
#470 = SURFACE_STYLE_FILL_AREA(#471);
#471 = FILL_AREA_STYLE('',(#472));
#472 = FILL_AREA_STYLE_COLOUR('',#473);
#473 = COLOUR_RGB('',0.809000015259,0.425999999046,0.148000001907);
#474 = STYLED_ITEM('color',(#475),#264);
#475 = PRESENTATION_STYLE_ASSIGNMENT((#476));
#476 = SURFACE_STYLE_USAGE(.BOTH.,#477);
#477 = SURFACE_SIDE_STYLE('',(#478));
#478 = SURFACE_STYLE_FILL_AREA(#479);
#479 = FILL_AREA_STYLE('',(#480));
#480 = FILL_AREA_STYLE_COLOUR('',#473);
#481 = STYLED_ITEM('color',(#482),#334);
#482 = PRESENTATION_STYLE_ASSIGNMENT((#483));
#483 = SURFACE_STYLE_USAGE(.BOTH.,#484);
#484 = SURFACE_SIDE_STYLE('',(#485));
#485 = SURFACE_STYLE_FILL_AREA(#486);
#486 = FILL_AREA_STYLE('',(#487));
#487 = FILL_AREA_STYLE_COLOUR('',#451);
#488 = STYLED_ITEM('color',(#489),#349);
#489 = PRESENTATION_STYLE_ASSIGNMENT((#490));
#490 = SURFACE_STYLE_USAGE(.BOTH.,#491);
#491 = SURFACE_SIDE_STYLE('',(#492));
#492 = SURFACE_STYLE_FILL_AREA(#493);
#493 = FILL_AREA_STYLE('',(#494));
#494 = FILL_AREA_STYLE_COLOUR('',#451);
#495 = STYLED_ITEM('color',(#496),#391);
#496 = PRESENTATION_STYLE_ASSIGNMENT((#497));
#497 = SURFACE_STYLE_USAGE(.BOTH.,#498);
#498 = SURFACE_SIDE_STYLE('',(#499));
#499 = SURFACE_STYLE_FILL_AREA(#500);
#500 = FILL_AREA_STYLE('',(#501));
#501 = FILL_AREA_STYLE_COLOUR('',#451);
#502 = STYLED_ITEM('color',(#503),#412);
#503 = PRESENTATION_STYLE_ASSIGNMENT((#504));
#504 = SURFACE_STYLE_USAGE(.BOTH.,#505);
#505 = SURFACE_SIDE_STYLE('',(#506));
#506 = SURFACE_STYLE_FILL_AREA(#507);
#507 = FILL_AREA_STYLE('',(#508));
#508 = FILL_AREA_STYLE_COLOUR('',#451);
#509 = STYLED_ITEM('color',(#510),#428);
#510 = PRESENTATION_STYLE_ASSIGNMENT((#511));
#511 = SURFACE_STYLE_USAGE(.BOTH.,#512);
#512 = SURFACE_SIDE_STYLE('',(#513));
#513 = SURFACE_STYLE_FILL_AREA(#514);
#514 = FILL_AREA_STYLE('',(#515));
#515 = FILL_AREA_STYLE_COLOUR('',#451);
ENDSEC;
END-ISO-10303-21;
