ISO-10303-21;
HEADER;
/* C_Disc_D14.5mm_W5.0mm_P7.50mm.step 3D STEP model for use in ECAD systems
 * Copyright (C) 2017, kicad StepUp
 * 
 * This program is free software: you can redistribute it and/or modify
 * it under the terms of the GNU General Public License as published by
 * the Free Software Foundation, either version 3 of the License, or
 * any later version.
 * 
 * This program is distributed in the hope that it will be useful,
 * but WITHOUT ANY WARRANTY; without even the implied warranty of
 * MERCHANTABILITY or FITNESS FOR A PARTICULAR PURPOSE.  See the
 * GNU General Public License for more details.
 * 
 * You should have received a copy of the GNU General Public License
 * along with this program.  If not, see http://www.gnu.org/licenses/.
 * 
 * As a special exception, if you create a design which uses this symbol,
 * and embed this symbol or unaltered portions of this symbol into the design,
 * this symbol does not by itself cause the resulting design to be covered by
 * the GNU General Public License.
 * This exception does not however invalidate any other reasons why the design
 * itself might be covered by the GNU General Public License. 
 * If you modify this symbol, you may extend this exception to your version of the symbol,
 * but you are not obligated to do so.
 * If you do not wish to do so, delete this exception statement from your version
 * Risk disclaimer
 * *USE 3D CAD DATA AT YOUR OWN RISK*
 * *DO NOT RELY UPON ANY INFORMATION FOUND HERE WITHOUT INDEPENDENT VERIFICATION.*
 * 
 */

FILE_DESCRIPTION(
/* description */ ('model of C_Disc_D14.5mm_W5.0mm_P7.50mm'),
/* implementation_level */ '2;1');

FILE_NAME(
/* name */ 'C_Disc_D14.5mm_W5.0mm_P7.50mm.step',
/* time_stamp */ '2017-07-29T01:51:06',
/* author */ ('kicad StepUp','ksu'),
/* organization */ ('FreeCAD'),
/* preprocessor_version */ 'OCC',
/* originating_system */ 'kicad StepUp',
/* authorisation */ '');

FILE_SCHEMA(('AUTOMOTIVE_DESIGN_CC2 { 1 2 10303 214 -1 1 5 4 }'));
ENDSEC;

DATA;
#1 = APPLICATION_PROTOCOL_DEFINITION('committee draft',
'automotive_design',1997,#2);
#2 = APPLICATION_CONTEXT(
'core data for automotive mechanical design processes');
#3 = SHAPE_DEFINITION_REPRESENTATION(#4,#10);
#4 = PRODUCT_DEFINITION_SHAPE('','',#5);
#5 = PRODUCT_DEFINITION('design','',#6,#9);
#6 = PRODUCT_DEFINITION_FORMATION('','',#7);
#7 = PRODUCT('C_Disc_D145mm_W50mm_P750mm','C_Disc_D145mm_W50mm_P750mm',
'',(#8));
#8 = MECHANICAL_CONTEXT('',#2,'mechanical');
#9 = PRODUCT_DEFINITION_CONTEXT('part definition',#2,'design');
#10 = ADVANCED_BREP_SHAPE_REPRESENTATION('',(#11,#15),#375);
#11 = AXIS2_PLACEMENT_3D('',#12,#13,#14);
#12 = CARTESIAN_POINT('',(0.,0.,0.));
#13 = DIRECTION('',(0.,0.,1.));
#14 = DIRECTION('',(1.,0.,-0.));
#15 = MANIFOLD_SOLID_BREP('',#16);
#16 = CLOSED_SHELL('',(#17,#34,#162,#262,#339,#366));
#17 = ADVANCED_FACE('',(#18),#29,.F.);
#18 = FACE_BOUND('',#19,.F.);
#19 = EDGE_LOOP('',(#20));
#20 = ORIENTED_EDGE('',*,*,#21,.T.);
#21 = EDGE_CURVE('',#22,#22,#24,.T.);
#22 = VERTEX_POINT('',#23);
#23 = CARTESIAN_POINT('',(-3.75,-0.35,-2.));
#24 = CIRCLE('',#25,0.35);
#25 = AXIS2_PLACEMENT_3D('',#26,#27,#28);
#26 = CARTESIAN_POINT('',(-3.75,0.,-2.));
#27 = DIRECTION('',(-0.,0.,1.));
#28 = DIRECTION('',(1.110223024625E-16,-1.,0.));
#29 = PLANE('',#30);
#30 = AXIS2_PLACEMENT_3D('',#31,#32,#33);
#31 = CARTESIAN_POINT('',(-3.75,0.,-2.));
#32 = DIRECTION('',(0.,0.,1.));
#33 = DIRECTION('',(1.110223024625E-16,-1.,0.));
#34 = ADVANCED_FACE('',(#35),#157,.T.);
#35 = FACE_BOUND('',#36,.F.);
#36 = EDGE_LOOP('',(#37,#38,#46,#71,#126,#156));
#37 = ORIENTED_EDGE('',*,*,#21,.F.);
#38 = ORIENTED_EDGE('',*,*,#39,.T.);
#39 = EDGE_CURVE('',#22,#40,#42,.T.);
#40 = VERTEX_POINT('',#41);
#41 = CARTESIAN_POINT('',(-3.75,-0.35,1.702544820895));
#42 = LINE('',#43,#44);
#43 = CARTESIAN_POINT('',(-3.75,-0.35,-2.));
#44 = VECTOR('',#45,1.);
#45 = DIRECTION('',(0.,0.,1.));
#46 = ORIENTED_EDGE('',*,*,#47,.T.);
#47 = EDGE_CURVE('',#40,#48,#50,.T.);
#48 = VERTEX_POINT('',#49);
#49 = CARTESIAN_POINT('',(-3.4,-2.664535257898E-15,0.946680548341));
#50 = B_SPLINE_CURVE_WITH_KNOTS('',7,(#51,#52,#53,#54,#55,#56,#57,#58,
#59,#60,#61,#62,#63,#64,#65,#66,#67,#68,#69,#70),.UNSPECIFIED.,.F.,
.F.,(8,6,6,8),(0.,0.526415694574,0.683483773188,1.),.UNSPECIFIED.);
#51 = CARTESIAN_POINT('',(-3.75,-0.35,1.702544820895));
#52 = CARTESIAN_POINT('',(-3.701075663099,-0.349999995358,1.670058275892
));
#53 = CARTESIAN_POINT('',(-3.655010977569,-0.342021127235,1.626602102299
));
#54 = CARTESIAN_POINT('',(-3.612762317505,-0.327744061039,1.575834528413
));
#55 = CARTESIAN_POINT('',(-3.574619247833,-0.308483925682,1.520350381888
));
#56 = CARTESIAN_POINT('',(-3.54065114637,-0.285198638275,1.46184632216)
);
#57 = CARTESIAN_POINT('',(-3.51077628208,-0.258505736103,1.40132717834)
);
#58 = CARTESIAN_POINT('',(-3.47734497707,-0.219766954597,1.320773472539)
);
#59 = CARTESIAN_POINT('',(-3.47003858003,-0.210595135399,1.302147873919)
);
#60 = CARTESIAN_POINT('',(-3.4631115354,-0.201166436772,1.283431081663)
);
#61 = CARTESIAN_POINT('',(-3.456567634872,-0.191492565358,1.264644503269
));
#62 = CARTESIAN_POINT('',(-3.450411434242,-0.181584557457,1.245808541781
));
#63 = CARTESIAN_POINT('',(-3.444648289819,-0.171452971036,1.226942933837
));
#64 = CARTESIAN_POINT('',(-3.428475325184,-0.140261533803,1.170029367742
));
#65 = CARTESIAN_POINT('',(-3.419288399501,-0.118550641222,1.131953447014
));
#66 = CARTESIAN_POINT('',(-3.411773211445,-9.605753089389E-02,
1.093994235461));
#67 = CARTESIAN_POINT('',(-3.405995507531,-7.286293433149E-02,
1.056308191053));
#68 = CARTESIAN_POINT('',(-3.402037803385,-4.905301453464E-02,
1.019063019201));
#69 = CARTESIAN_POINT('',(-3.4,-2.472619687813E-02,0.982447372144));
#70 = CARTESIAN_POINT('',(-3.4,-3.552713678801E-15,0.946680548341));
#71 = ORIENTED_EDGE('',*,*,#72,.T.);
#72 = EDGE_CURVE('',#48,#73,#75,.T.);
#73 = VERTEX_POINT('',#74);
#74 = CARTESIAN_POINT('',(-4.1,-2.664535257898E-15,1.370660571602));
#75 = B_SPLINE_CURVE_WITH_KNOTS('',7,(#76,#77,#78,#79,#80,#81,#82,#83,
#84,#85,#86,#87,#88,#89,#90,#91,#92,#93,#94,#95,#96,#97,#98,#99,#100
,#101,#102,#103,#104,#105,#106,#107,#108,#109,#110,#111,#112,#113,
#114,#115,#116,#117,#118,#119,#120,#121,#122,#123,#124,#125),
.UNSPECIFIED.,.F.,.F.,(8,6,6,6,6,6,6,6,8),(0.,0.168994402407,
0.470096016029,0.535621786671,0.570281146265,0.639845655085,
0.739132527982,0.799759805332,1.),.UNSPECIFIED.);
#76 = CARTESIAN_POINT('',(-3.4,-5.344950722063E-15,0.946680548341));
#77 = CARTESIAN_POINT('',(-3.4,2.472619672905E-02,0.982447371928));
#78 = CARTESIAN_POINT('',(-3.40203780336,4.90530142867E-02,
1.019063018825));
#79 = CARTESIAN_POINT('',(-3.405995507473,7.286293405312E-02,
1.05630819061));
#80 = CARTESIAN_POINT('',(-3.411773211367,9.60575306501E-02,
1.093994235052));
#81 = CARTESIAN_POINT('',(-3.41928839943,0.118550641058,1.131953446725)
);
#82 = CARTESIAN_POINT('',(-3.428475325148,0.140261533732,1.170029367614)
);
#83 = CARTESIAN_POINT('',(-3.458543188488,0.198250893955,1.275839858525)
);
#84 = CARTESIAN_POINT('',(-3.482904244979,0.232557829288,1.343323588861)
);
#85 = CARTESIAN_POINT('',(-3.512096693659,0.263691037522,1.409830052401)
);
#86 = CARTESIAN_POINT('',(-3.546056413645,0.291146887909,1.474494255673)
);
#87 = CARTESIAN_POINT('',(-3.584721916931,0.314141798501,1.535953897535)
);
#88 = CARTESIAN_POINT('',(-3.628029199669,0.33166685662,1.592355768495)
);
#89 = CARTESIAN_POINT('',(-3.686074512613,0.344276393198,1.650935990178)
);
#90 = CARTESIAN_POINT('',(-3.696648959946,0.346189089582,1.661006579858)
);
#91 = CARTESIAN_POINT('',(-3.707417917393,0.347743572493,1.670643142882)
);
#92 = CARTESIAN_POINT('',(-3.718372647364,0.348920936611,1.679805890914)
);
#93 = CARTESIAN_POINT('',(-3.729500987702,0.349701414197,1.688451129195)
);
#94 = CARTESIAN_POINT('',(-3.740786922182,0.350065157588,1.696532318781)
);
#95 = CARTESIAN_POINT('',(-3.758252381273,0.349954865955,1.707951714521)
);
#96 = CARTESIAN_POINT('',(-3.764332832069,0.349794807251,1.711730918157)
);
#97 = CARTESIAN_POINT('',(-3.770448378861,0.349509941091,1.715331395585)
);
#98 = CARTESIAN_POINT('',(-3.776595409154,0.349097566902,1.718745812488)
);
#99 = CARTESIAN_POINT('',(-3.782769822477,0.348555188025,1.721966854353)
);
#100 = CARTESIAN_POINT('',(-3.788967030385,0.347880511715,1.724987226474
));
#101 = CARTESIAN_POINT('',(-3.807655882257,0.345447586467,1.733444453446
));
#102 = CARTESIAN_POINT('',(-3.820202702822,0.343282338449,1.738252570509
));
#103 = CARTESIAN_POINT('',(-3.832779042304,0.340559677075,1.742165105514
));
#104 = CARTESIAN_POINT('',(-3.845333784832,0.337269648013,1.745128432698
));
#105 = CARTESIAN_POINT('',(-3.857809846347,0.33341093576,1.74709993164)
);
#106 = CARTESIAN_POINT('',(-3.870145946425,0.328993428792,1.748053718753
));
#107 = CARTESIAN_POINT('',(-3.899594557882,0.316972057397,1.747890266887
));
#108 = CARTESIAN_POINT('',(-3.916507267296,0.30880860727,1.745714062235)
);
#109 = CARTESIAN_POINT('',(-3.93282133358,0.299620108315,1.741442308459)
);
#110 = CARTESIAN_POINT('',(-3.948386438664,0.289515983959,1.735160697644
));
#111 = CARTESIAN_POINT('',(-3.96309892894,0.278624185614,1.727020973024)
);
#112 = CARTESIAN_POINT('',(-3.976897470725,0.26707468389,1.717208682612)
);
#113 = CARTESIAN_POINT('',(-3.997602218176,0.247607013075,1.699016809907
));
#114 = CARTESIAN_POINT('',(-4.005102364521,0.240023801804,1.691565031085
));
#115 = CARTESIAN_POINT('',(-4.012248451226,0.232262971768,1.683599217325
));
#116 = CARTESIAN_POINT('',(-4.019039757497,0.22434763807,1.675159639848)
);
#117 = CARTESIAN_POINT('',(-4.025478574122,0.216298727657,1.666284865265
));
#118 = CARTESIAN_POINT('',(-4.031569394603,0.208134609155,1.657010549795
));
#119 = CARTESIAN_POINT('',(-4.056304991384,0.172576700878,1.615521523821
));
#120 = CARTESIAN_POINT('',(-4.071532675938,0.144234004912,1.579706835076
));
#121 = CARTESIAN_POINT('',(-4.083273598125,0.11534853393,1.541018935782)
);
#122 = CARTESIAN_POINT('',(-4.091786626416,8.627212175496E-02,
1.500264990818));
#123 = CARTESIAN_POINT('',(-4.097301207214,5.725026050066E-02,
1.458032671654));
#124 = CARTESIAN_POINT('',(-4.1,2.845456813131E-02,1.414739092393));
#125 = CARTESIAN_POINT('',(-4.1,-5.329070518201E-15,1.370660571602));
#126 = ORIENTED_EDGE('',*,*,#127,.T.);
#127 = EDGE_CURVE('',#73,#40,#128,.T.);
#128 = B_SPLINE_CURVE_WITH_KNOTS('',6,(#129,#130,#131,#132,#133,#134,
#135,#136,#137,#138,#139,#140,#141,#142,#143,#144,#145,#146,#147,
#148,#149,#150,#151,#152,#153,#154,#155),.UNSPECIFIED.,.F.,.F.,(7,5,
5,5,5,7),(0.,0.429356735632,0.559531432319,0.773143364192,
0.92372660102,1.),.UNSPECIFIED.);
#129 = CARTESIAN_POINT('',(-4.1,-3.386180225107E-15,1.370660571602));
#130 = CARTESIAN_POINT('',(-4.1,-3.318403498811E-02,1.42206543459));
#131 = CARTESIAN_POINT('',(-4.096224639305,-6.684533983838E-02,
1.472372343084));
#132 = CARTESIAN_POINT('',(-4.088469390298,-0.100782883307,
1.521098149461));
#133 = CARTESIAN_POINT('',(-4.076376803221,-0.134663693499,
1.567431811379));
#134 = CARTESIAN_POINT('',(-4.059502401588,-0.16796275531,1.610130477433
));
#135 = CARTESIAN_POINT('',(-4.030659601493,-0.209447765586,
1.658545001467));
#136 = CARTESIAN_POINT('',(-4.023469506565,-0.218959428314,
1.669292702354));
#137 = CARTESIAN_POINT('',(-4.015789235487,-0.228304209705,
1.679469163546));
#138 = CARTESIAN_POINT('',(-4.007611702146,-0.237448173394,1.68900941361
));
#139 = CARTESIAN_POINT('',(-3.998935920951,-0.24635182433,1.697843072027
));
#140 = CARTESIAN_POINT('',(-3.974728661193,-0.26911583176,1.719117387617
));
#141 = CARTESIAN_POINT('',(-3.958358559225,-0.282503503827,
1.730248459177));
#142 = CARTESIAN_POINT('',(-3.940711727371,-0.294922041051,
1.738956187903));
#143 = CARTESIAN_POINT('',(-3.921915455516,-0.306136090023,
1.744915523112));
#144 = CARTESIAN_POINT('',(-3.902209337852,-0.31592923811,1.747916384484
));
#145 = CARTESIAN_POINT('',(-3.867648979654,-0.329995051511,
1.748038350194));
#146 = CARTESIAN_POINT('',(-3.853070694709,-0.335047243677,
1.746633048792));
#147 = CARTESIAN_POINT('',(-3.83831842111,-0.339293619665,1.743778775422
));
#148 = CARTESIAN_POINT('',(-3.823500741944,-0.342725299063,
1.739536568677));
#149 = CARTESIAN_POINT('',(-3.808713726254,-0.345357269289,
1.734000637156));
#150 = CARTESIAN_POINT('',(-3.78659919269,-0.348161847661,1.723871719865
));
#151 = CARTESIAN_POINT('',(-3.779190981529,-0.348907159775,1.72016115804
));
#152 = CARTESIAN_POINT('',(-3.771819353493,-0.349458855866,
1.716159365286));
#153 = CARTESIAN_POINT('',(-3.764492536996,-0.349821460402,1.71188015672
));
#154 = CARTESIAN_POINT('',(-3.757217509998,-0.349999999315,
1.707337361114));
#155 = CARTESIAN_POINT('',(-3.75,-0.35,1.702544820895));
#156 = ORIENTED_EDGE('',*,*,#39,.F.);
#157 = CYLINDRICAL_SURFACE('',#158,0.35);
#158 = AXIS2_PLACEMENT_3D('',#159,#160,#161);
#159 = CARTESIAN_POINT('',(-3.75,0.,-2.));
#160 = DIRECTION('',(-0.,0.,-1.));
#161 = DIRECTION('',(1.110223024625E-16,-1.,0.));
#162 = ADVANCED_FACE('',(#163),#257,.T.);
#163 = FACE_BOUND('',#164,.T.);
#164 = EDGE_LOOP('',(#165,#176,#183,#184,#185,#194,#249,#256));
#165 = ORIENTED_EDGE('',*,*,#166,.F.);
#166 = EDGE_CURVE('',#167,#169,#171,.T.);
#167 = VERTEX_POINT('',#168);
#168 = CARTESIAN_POINT('',(-7.25,-2.664535257898E-15,7.35));
#169 = VERTEX_POINT('',#170);
#170 = CARTESIAN_POINT('',(2.22044604925E-16,-2.5,7.35));
#171 = CIRCLE('',#172,11.7625);
#172 = AXIS2_PLACEMENT_3D('',#173,#174,#175);
#173 = CARTESIAN_POINT('',(2.22044604925E-16,9.2625,7.35));
#174 = DIRECTION('',(0.,0.,1.));
#175 = DIRECTION('',(-0.616365568544,-0.787460148778,0.));
#176 = ORIENTED_EDGE('',*,*,#177,.T.);
#177 = EDGE_CURVE('',#167,#73,#178,.T.);
#178 = CIRCLE('',#179,7.25);
#179 = AXIS2_PLACEMENT_3D('',#180,#181,#182);
#180 = CARTESIAN_POINT('',(0.,-2.664535257898E-15,7.35));
#181 = DIRECTION('',(0.,-1.,0.));
#182 = DIRECTION('',(-1.,0.,0.));
#183 = ORIENTED_EDGE('',*,*,#127,.T.);
#184 = ORIENTED_EDGE('',*,*,#47,.T.);
#185 = ORIENTED_EDGE('',*,*,#186,.T.);
#186 = EDGE_CURVE('',#48,#187,#189,.T.);
#187 = VERTEX_POINT('',#188);
#188 = CARTESIAN_POINT('',(3.4,-2.664535257898E-15,0.946680548341));
#189 = CIRCLE('',#190,7.25);
#190 = AXIS2_PLACEMENT_3D('',#191,#192,#193);
#191 = CARTESIAN_POINT('',(0.,-2.664535257898E-15,7.35));
#192 = DIRECTION('',(0.,-1.,0.));
#193 = DIRECTION('',(-1.,0.,0.));
#194 = ORIENTED_EDGE('',*,*,#195,.T.);
#195 = EDGE_CURVE('',#187,#196,#198,.T.);
#196 = VERTEX_POINT('',#197);
#197 = CARTESIAN_POINT('',(4.1,-2.664535257898E-15,1.370660571602));
#198 = B_SPLINE_CURVE_WITH_KNOTS('',7,(#199,#200,#201,#202,#203,#204,
#205,#206,#207,#208,#209,#210,#211,#212,#213,#214,#215,#216,#217,
#218,#219,#220,#221,#222,#223,#224,#225,#226,#227,#228,#229,#230,
#231,#232,#233,#234,#235,#236,#237,#238,#239,#240,#241,#242,#243,
#244,#245,#246,#247,#248),.UNSPECIFIED.,.F.,.F.,(8,6,6,6,6,6,6,6,8),
(0.,0.168994402407,0.470096016029,0.53562178667,0.570281146264,
0.639845655085,0.739132527981,0.799759805331,1.),.UNSPECIFIED.);
#199 = CARTESIAN_POINT('',(3.4,-3.552713678801E-15,0.946680548341));
#200 = CARTESIAN_POINT('',(3.4,-2.472619672905E-02,0.982447371928));
#201 = CARTESIAN_POINT('',(3.40203780336,-4.905301428671E-02,
1.019063018825));
#202 = CARTESIAN_POINT('',(3.405995507473,-7.286293405313E-02,
1.05630819061));
#203 = CARTESIAN_POINT('',(3.411773211367,-9.605753065011E-02,
1.093994235052));
#204 = CARTESIAN_POINT('',(3.41928839943,-0.118550641058,1.131953446725)
);
#205 = CARTESIAN_POINT('',(3.428475325148,-0.140261533732,1.170029367614
));
#206 = CARTESIAN_POINT('',(3.458543188488,-0.198250893955,1.275839858525
));
#207 = CARTESIAN_POINT('',(3.482904244979,-0.232557829288,1.343323588861
));
#208 = CARTESIAN_POINT('',(3.512096693659,-0.263691037522,1.409830052401
));
#209 = CARTESIAN_POINT('',(3.546056413645,-0.291146887908,1.474494255673
));
#210 = CARTESIAN_POINT('',(3.584721916932,-0.314141798502,1.535953897535
));
#211 = CARTESIAN_POINT('',(3.628029199669,-0.33166685662,1.592355768495)
);
#212 = CARTESIAN_POINT('',(3.686074512613,-0.344276393198,1.650935990178
));
#213 = CARTESIAN_POINT('',(3.696648959946,-0.346189089582,1.661006579858
));
#214 = CARTESIAN_POINT('',(3.707417917393,-0.347743572493,1.670643142882
));
#215 = CARTESIAN_POINT('',(3.718372647364,-0.348920936611,1.679805890914
));
#216 = CARTESIAN_POINT('',(3.729500987702,-0.349701414197,1.688451129195
));
#217 = CARTESIAN_POINT('',(3.740786922182,-0.350065157588,1.696532318781
));
#218 = CARTESIAN_POINT('',(3.758252381273,-0.349954865955,1.707951714521
));
#219 = CARTESIAN_POINT('',(3.764332832069,-0.349794807251,1.711730918157
));
#220 = CARTESIAN_POINT('',(3.770448378861,-0.349509941091,1.715331395585
));
#221 = CARTESIAN_POINT('',(3.776595409154,-0.349097566902,1.718745812488
));
#222 = CARTESIAN_POINT('',(3.782769822477,-0.348555188025,1.721966854353
));
#223 = CARTESIAN_POINT('',(3.788967030385,-0.347880511715,1.724987226474
));
#224 = CARTESIAN_POINT('',(3.807655882257,-0.345447586467,1.733444453446
));
#225 = CARTESIAN_POINT('',(3.820202702822,-0.343282338449,1.738252570509
));
#226 = CARTESIAN_POINT('',(3.832779042304,-0.340559677075,1.742165105514
));
#227 = CARTESIAN_POINT('',(3.845333784832,-0.337269648013,1.745128432698
));
#228 = CARTESIAN_POINT('',(3.857809846347,-0.33341093576,1.74709993164)
);
#229 = CARTESIAN_POINT('',(3.870145946425,-0.328993428792,1.748053718753
));
#230 = CARTESIAN_POINT('',(3.899594557882,-0.316972057397,1.747890266887
));
#231 = CARTESIAN_POINT('',(3.916507267296,-0.30880860727,1.745714062235)
);
#232 = CARTESIAN_POINT('',(3.93282133358,-0.299620108314,1.741442308459)
);
#233 = CARTESIAN_POINT('',(3.948386438664,-0.289515983959,1.735160697644
));
#234 = CARTESIAN_POINT('',(3.96309892894,-0.278624185614,1.727020973024)
);
#235 = CARTESIAN_POINT('',(3.976897470725,-0.26707468389,1.717208682612)
);
#236 = CARTESIAN_POINT('',(3.997602218176,-0.247607013075,1.699016809907
));
#237 = CARTESIAN_POINT('',(4.005102364521,-0.240023801804,1.691565031085
));
#238 = CARTESIAN_POINT('',(4.012248451226,-0.232262971768,1.683599217325
));
#239 = CARTESIAN_POINT('',(4.019039757497,-0.22434763807,1.675159639848)
);
#240 = CARTESIAN_POINT('',(4.025478574122,-0.216298727657,1.666284865265
));
#241 = CARTESIAN_POINT('',(4.031569394603,-0.208134609155,1.657010549795
));
#242 = CARTESIAN_POINT('',(4.056304991384,-0.172576700878,1.615521523821
));
#243 = CARTESIAN_POINT('',(4.071532675938,-0.144234004912,1.579706835076
));
#244 = CARTESIAN_POINT('',(4.083273598125,-0.11534853393,1.541018935782)
);
#245 = CARTESIAN_POINT('',(4.091786626417,-8.627212175487E-02,
1.500264990818));
#246 = CARTESIAN_POINT('',(4.097301207214,-5.725026050079E-02,
1.458032671654));
#247 = CARTESIAN_POINT('',(4.1,-2.845456813128E-02,1.414739092393));
#248 = CARTESIAN_POINT('',(4.1,-3.552713678801E-15,1.370660571602));
#249 = ORIENTED_EDGE('',*,*,#250,.T.);
#250 = EDGE_CURVE('',#196,#167,#251,.T.);
#251 = CIRCLE('',#252,7.25);
#252 = AXIS2_PLACEMENT_3D('',#253,#254,#255);
#253 = CARTESIAN_POINT('',(0.,-2.664535257898E-15,7.35));
#254 = DIRECTION('',(0.,-1.,0.));
#255 = DIRECTION('',(-1.,0.,0.));
#256 = ORIENTED_EDGE('',*,*,#166,.T.);
#257 = SPHERICAL_SURFACE('',#258,11.7625);
#258 = AXIS2_PLACEMENT_3D('',#259,#260,#261);
#259 = CARTESIAN_POINT('',(2.22044604925E-16,9.2625,7.35));
#260 = DIRECTION('',(0.,-1.,0.));
#261 = DIRECTION('',(-1.,0.,0.));
#262 = ADVANCED_FACE('',(#263),#334,.T.);
#263 = FACE_BOUND('',#264,.T.);
#264 = EDGE_LOOP('',(#265,#274,#275,#276,#308,#331,#332,#333));
#265 = ORIENTED_EDGE('',*,*,#266,.F.);
#266 = EDGE_CURVE('',#267,#167,#269,.T.);
#267 = VERTEX_POINT('',#268);
#268 = CARTESIAN_POINT('',(-7.88860905221E-31,2.5,7.35));
#269 = CIRCLE('',#270,11.7625);
#270 = AXIS2_PLACEMENT_3D('',#271,#272,#273);
#271 = CARTESIAN_POINT('',(-3.219646771413E-15,-9.2625,7.35));
#272 = DIRECTION('',(0.,-0.,1.));
#273 = DIRECTION('',(2.737212983135E-16,1.,0.));
#274 = ORIENTED_EDGE('',*,*,#266,.T.);
#275 = ORIENTED_EDGE('',*,*,#250,.F.);
#276 = ORIENTED_EDGE('',*,*,#277,.T.);
#277 = EDGE_CURVE('',#196,#278,#280,.T.);
#278 = VERTEX_POINT('',#279);
#279 = CARTESIAN_POINT('',(3.75,0.35,1.702544820895));
#280 = B_SPLINE_CURVE_WITH_KNOTS('',6,(#281,#282,#283,#284,#285,#286,
#287,#288,#289,#290,#291,#292,#293,#294,#295,#296,#297,#298,#299,
#300,#301,#302,#303,#304,#305,#306,#307),.UNSPECIFIED.,.F.,.F.,(7,5,
5,5,5,7),(0.,0.429356735632,0.559531432318,0.773143364192,
0.92372660102,1.),.UNSPECIFIED.);
#281 = CARTESIAN_POINT('',(4.1,-5.352960386279E-15,1.370660571602));
#282 = CARTESIAN_POINT('',(4.1,3.31840349881E-02,1.42206543459));
#283 = CARTESIAN_POINT('',(4.096224639305,6.684533983836E-02,
1.472372343084));
#284 = CARTESIAN_POINT('',(4.088469390298,0.100782883307,1.521098149461)
);
#285 = CARTESIAN_POINT('',(4.076376803221,0.134663693499,1.567431811379)
);
#286 = CARTESIAN_POINT('',(4.059502401588,0.16796275531,1.610130477433)
);
#287 = CARTESIAN_POINT('',(4.030659601493,0.209447765586,1.658545001467)
);
#288 = CARTESIAN_POINT('',(4.023469506565,0.218959428314,1.669292702354)
);
#289 = CARTESIAN_POINT('',(4.015789235487,0.228304209705,1.679469163546)
);
#290 = CARTESIAN_POINT('',(4.007611702146,0.237448173394,1.68900941361)
);
#291 = CARTESIAN_POINT('',(3.998935920951,0.24635182433,1.697843072027)
);
#292 = CARTESIAN_POINT('',(3.974728661193,0.26911583176,1.719117387617)
);
#293 = CARTESIAN_POINT('',(3.958358559225,0.282503503827,1.730248459177)
);
#294 = CARTESIAN_POINT('',(3.94071172737,0.294922041051,1.738956187903)
);
#295 = CARTESIAN_POINT('',(3.921915455516,0.306136090023,1.744915523112)
);
#296 = CARTESIAN_POINT('',(3.902209337852,0.31592923811,1.747916384484)
);
#297 = CARTESIAN_POINT('',(3.867648979654,0.329995051511,1.748038350194)
);
#298 = CARTESIAN_POINT('',(3.853070694709,0.335047243677,1.746633048792)
);
#299 = CARTESIAN_POINT('',(3.83831842111,0.339293619665,1.743778775422)
);
#300 = CARTESIAN_POINT('',(3.823500741944,0.342725299063,1.739536568677)
);
#301 = CARTESIAN_POINT('',(3.808713726254,0.345357269289,1.734000637156)
);
#302 = CARTESIAN_POINT('',(3.78659919269,0.348161847661,1.723871719865)
);
#303 = CARTESIAN_POINT('',(3.779190981529,0.348907159775,1.72016115804)
);
#304 = CARTESIAN_POINT('',(3.771819353493,0.349458855866,1.716159365286)
);
#305 = CARTESIAN_POINT('',(3.764492536996,0.349821460402,1.71188015672)
);
#306 = CARTESIAN_POINT('',(3.757217509998,0.349999999315,1.707337361114)
);
#307 = CARTESIAN_POINT('',(3.75,0.35,1.702544820895));
#308 = ORIENTED_EDGE('',*,*,#309,.T.);
#309 = EDGE_CURVE('',#278,#187,#310,.T.);
#310 = B_SPLINE_CURVE_WITH_KNOTS('',7,(#311,#312,#313,#314,#315,#316,
#317,#318,#319,#320,#321,#322,#323,#324,#325,#326,#327,#328,#329,
#330),.UNSPECIFIED.,.F.,.F.,(8,6,6,8),(0.,0.526415694574,
0.683483773189,1.),.UNSPECIFIED.);
#311 = CARTESIAN_POINT('',(3.75,0.35,1.702544820895));
#312 = CARTESIAN_POINT('',(3.701075663099,0.349999995358,1.670058275892)
);
#313 = CARTESIAN_POINT('',(3.655010977569,0.342021127235,1.626602102299)
);
#314 = CARTESIAN_POINT('',(3.612762317505,0.327744061039,1.575834528413)
);
#315 = CARTESIAN_POINT('',(3.574619247833,0.308483925682,1.520350381888)
);
#316 = CARTESIAN_POINT('',(3.54065114637,0.285198638275,1.46184632216));
#317 = CARTESIAN_POINT('',(3.510776282081,0.258505736103,1.40132717834)
);
#318 = CARTESIAN_POINT('',(3.47734497707,0.219766954597,1.320773472539)
);
#319 = CARTESIAN_POINT('',(3.47003858003,0.210595135399,1.302147873919)
);
#320 = CARTESIAN_POINT('',(3.4631115354,0.201166436772,1.283431081663));
#321 = CARTESIAN_POINT('',(3.456567634872,0.191492565358,1.264644503269)
);
#322 = CARTESIAN_POINT('',(3.450411434242,0.181584557457,1.245808541781)
);
#323 = CARTESIAN_POINT('',(3.444648289819,0.171452971036,1.226942933837)
);
#324 = CARTESIAN_POINT('',(3.428475325184,0.140261533803,1.170029367742)
);
#325 = CARTESIAN_POINT('',(3.419288399501,0.118550641222,1.131953447014)
);
#326 = CARTESIAN_POINT('',(3.411773211445,9.605753089388E-02,
1.093994235461));
#327 = CARTESIAN_POINT('',(3.405995507531,7.286293433149E-02,
1.056308191053));
#328 = CARTESIAN_POINT('',(3.402037803385,4.905301453464E-02,
1.019063019201));
#329 = CARTESIAN_POINT('',(3.4,2.472619687811E-02,0.982447372144));
#330 = CARTESIAN_POINT('',(3.4,-5.329070518201E-15,0.946680548341));
#331 = ORIENTED_EDGE('',*,*,#186,.F.);
#332 = ORIENTED_EDGE('',*,*,#72,.T.);
#333 = ORIENTED_EDGE('',*,*,#177,.F.);
#334 = SPHERICAL_SURFACE('',#335,11.7625);
#335 = AXIS2_PLACEMENT_3D('',#336,#337,#338);
#336 = CARTESIAN_POINT('',(-3.219646771413E-15,-9.2625,7.35));
#337 = DIRECTION('',(0.,-1.,0.));
#338 = DIRECTION('',(-1.,0.,0.));
#339 = ADVANCED_FACE('',(#340),#361,.T.);
#340 = FACE_BOUND('',#341,.F.);
#341 = EDGE_LOOP('',(#342,#351,#357,#358,#359,#360));
#342 = ORIENTED_EDGE('',*,*,#343,.F.);
#343 = EDGE_CURVE('',#344,#344,#346,.T.);
#344 = VERTEX_POINT('',#345);
#345 = CARTESIAN_POINT('',(3.75,0.35,-2.));
#346 = CIRCLE('',#347,0.35);
#347 = AXIS2_PLACEMENT_3D('',#348,#349,#350);
#348 = CARTESIAN_POINT('',(3.75,0.,-2.));
#349 = DIRECTION('',(0.,-0.,1.));
#350 = DIRECTION('',(1.144237745222E-17,1.,0.));
#351 = ORIENTED_EDGE('',*,*,#352,.T.);
#352 = EDGE_CURVE('',#344,#278,#353,.T.);
#353 = LINE('',#354,#355);
#354 = CARTESIAN_POINT('',(3.75,0.35,-2.));
#355 = VECTOR('',#356,1.);
#356 = DIRECTION('',(0.,0.,1.));
#357 = ORIENTED_EDGE('',*,*,#309,.T.);
#358 = ORIENTED_EDGE('',*,*,#195,.T.);
#359 = ORIENTED_EDGE('',*,*,#277,.T.);
#360 = ORIENTED_EDGE('',*,*,#352,.F.);
#361 = CYLINDRICAL_SURFACE('',#362,0.35);
#362 = AXIS2_PLACEMENT_3D('',#363,#364,#365);
#363 = CARTESIAN_POINT('',(3.75,0.,-2.));
#364 = DIRECTION('',(0.,-0.,-1.));
#365 = DIRECTION('',(1.144237745222E-17,1.,0.));
#366 = ADVANCED_FACE('',(#367),#370,.F.);
#367 = FACE_BOUND('',#368,.F.);
#368 = EDGE_LOOP('',(#369));
#369 = ORIENTED_EDGE('',*,*,#343,.T.);
#370 = PLANE('',#371);
#371 = AXIS2_PLACEMENT_3D('',#372,#373,#374);
#372 = CARTESIAN_POINT('',(3.75,0.,-2.));
#373 = DIRECTION('',(0.,0.,1.));
#374 = DIRECTION('',(1.144237745222E-17,1.,0.));
#375 = ( GEOMETRIC_REPRESENTATION_CONTEXT(3)
GLOBAL_UNCERTAINTY_ASSIGNED_CONTEXT((#379)) GLOBAL_UNIT_ASSIGNED_CONTEXT
((#376,#377,#378)) REPRESENTATION_CONTEXT('Context #1',
'3D Context with UNIT and UNCERTAINTY') );
#376 = ( LENGTH_UNIT() NAMED_UNIT(*) SI_UNIT(.MILLI.,.METRE.) );
#377 = ( NAMED_UNIT(*) PLANE_ANGLE_UNIT() SI_UNIT($,.RADIAN.) );
#378 = ( NAMED_UNIT(*) SI_UNIT($,.STERADIAN.) SOLID_ANGLE_UNIT() );
#379 = UNCERTAINTY_MEASURE_WITH_UNIT(LENGTH_MEASURE(2.E-07),#376,
'distance_accuracy_value','confusion accuracy');
#380 = PRODUCT_TYPE('part',$,(#7));
#381 = MECHANICAL_DESIGN_GEOMETRIC_PRESENTATION_REPRESENTATION('',(#382,
#390,#397,#405,#412,#419),#375);
#382 = STYLED_ITEM('color',(#383),#17);
#383 = PRESENTATION_STYLE_ASSIGNMENT((#384));
#384 = SURFACE_STYLE_USAGE(.BOTH.,#385);
#385 = SURFACE_SIDE_STYLE('',(#386));
#386 = SURFACE_STYLE_FILL_AREA(#387);
#387 = FILL_AREA_STYLE('',(#388));
#388 = FILL_AREA_STYLE_COLOUR('',#389);
#389 = COLOUR_RGB('',0.824000000954,0.819999992847,0.78100001812);
#390 = STYLED_ITEM('color',(#391),#34);
#391 = PRESENTATION_STYLE_ASSIGNMENT((#392));
#392 = SURFACE_STYLE_USAGE(.BOTH.,#393);
#393 = SURFACE_SIDE_STYLE('',(#394));
#394 = SURFACE_STYLE_FILL_AREA(#395);
#395 = FILL_AREA_STYLE('',(#396));
#396 = FILL_AREA_STYLE_COLOUR('',#389);
#397 = STYLED_ITEM('color',(#398),#162);
#398 = PRESENTATION_STYLE_ASSIGNMENT((#399));
#399 = SURFACE_STYLE_USAGE(.BOTH.,#400);
#400 = SURFACE_SIDE_STYLE('',(#401));
#401 = SURFACE_STYLE_FILL_AREA(#402);
#402 = FILL_AREA_STYLE('',(#403));
#403 = FILL_AREA_STYLE_COLOUR('',#404);
#404 = COLOUR_RGB('',0.809000015259,0.425999999046,0.148000001907);
#405 = STYLED_ITEM('color',(#406),#262);
#406 = PRESENTATION_STYLE_ASSIGNMENT((#407));
#407 = SURFACE_STYLE_USAGE(.BOTH.,#408);
#408 = SURFACE_SIDE_STYLE('',(#409));
#409 = SURFACE_STYLE_FILL_AREA(#410);
#410 = FILL_AREA_STYLE('',(#411));
#411 = FILL_AREA_STYLE_COLOUR('',#404);
#412 = STYLED_ITEM('color',(#413),#339);
#413 = PRESENTATION_STYLE_ASSIGNMENT((#414));
#414 = SURFACE_STYLE_USAGE(.BOTH.,#415);
#415 = SURFACE_SIDE_STYLE('',(#416));
#416 = SURFACE_STYLE_FILL_AREA(#417);
#417 = FILL_AREA_STYLE('',(#418));
#418 = FILL_AREA_STYLE_COLOUR('',#389);
#419 = STYLED_ITEM('color',(#420),#366);
#420 = PRESENTATION_STYLE_ASSIGNMENT((#421));
#421 = SURFACE_STYLE_USAGE(.BOTH.,#422);
#422 = SURFACE_SIDE_STYLE('',(#423));
#423 = SURFACE_STYLE_FILL_AREA(#424);
#424 = FILL_AREA_STYLE('',(#425));
#425 = FILL_AREA_STYLE_COLOUR('',#389);
ENDSEC;
END-ISO-10303-21;
