ISO-10303-21;
HEADER;
/* C_Disc_D11.0mm_W5.0mm_P5.00mm.step 3D STEP model for use in ECAD systems
 * Copyright (C) 2017, kicad StepUp
 * 
 * This program is free software: you can redistribute it and/or modify
 * it under the terms of the GNU General Public License as published by
 * the Free Software Foundation, either version 3 of the License, or
 * any later version.
 * 
 * This program is distributed in the hope that it will be useful,
 * but WITHOUT ANY WARRANTY; without even the implied warranty of
 * MERCHANTABILITY or FITNESS FOR A PARTICULAR PURPOSE.  See the
 * GNU General Public License for more details.
 * 
 * You should have received a copy of the GNU General Public License
 * along with this program.  If not, see http://www.gnu.org/licenses/.
 * 
 * As a special exception, if you create a design which uses this symbol,
 * and embed this symbol or unaltered portions of this symbol into the design,
 * this symbol does not by itself cause the resulting design to be covered by
 * the GNU General Public License.
 * This exception does not however invalidate any other reasons why the design
 * itself might be covered by the GNU General Public License. 
 * If you modify this symbol, you may extend this exception to your version of the symbol,
 * but you are not obligated to do so.
 * If you do not wish to do so, delete this exception statement from your version
 * Risk disclaimer
 * *USE 3D CAD DATA AT YOUR OWN RISK*
 * *DO NOT RELY UPON ANY INFORMATION FOUND HERE WITHOUT INDEPENDENT VERIFICATION.*
 * 
 */

FILE_DESCRIPTION(
/* description */ ('model of C_Disc_D11.0mm_W5.0mm_P5.00mm'),
/* implementation_level */ '2;1');

FILE_NAME(
/* name */ 'C_Disc_D11.0mm_W5.0mm_P5.00mm.step',
/* time_stamp */ '2017-07-29T01:50:49',
/* author */ ('kicad StepUp','ksu'),
/* organization */ ('FreeCAD'),
/* preprocessor_version */ 'OCC',
/* originating_system */ 'kicad StepUp',
/* authorisation */ '');

FILE_SCHEMA(('AUTOMOTIVE_DESIGN_CC2 { 1 2 10303 214 -1 1 5 4 }'));
ENDSEC;

DATA;
#1 = APPLICATION_PROTOCOL_DEFINITION('committee draft',
'automotive_design',1997,#2);
#2 = APPLICATION_CONTEXT(
'core data for automotive mechanical design processes');
#3 = SHAPE_DEFINITION_REPRESENTATION(#4,#10);
#4 = PRODUCT_DEFINITION_SHAPE('','',#5);
#5 = PRODUCT_DEFINITION('design','',#6,#9);
#6 = PRODUCT_DEFINITION_FORMATION('','',#7);
#7 = PRODUCT('C_Disc_D110mm_W50mm_P500mm','C_Disc_D110mm_W50mm_P500mm',
'',(#8));
#8 = MECHANICAL_CONTEXT('',#2,'mechanical');
#9 = PRODUCT_DEFINITION_CONTEXT('part definition',#2,'design');
#10 = ADVANCED_BREP_SHAPE_REPRESENTATION('',(#11,#15),#327);
#11 = AXIS2_PLACEMENT_3D('',#12,#13,#14);
#12 = CARTESIAN_POINT('',(0.,0.,0.));
#13 = DIRECTION('',(0.,0.,1.));
#14 = DIRECTION('',(1.,0.,-0.));
#15 = MANIFOLD_SOLID_BREP('',#16);
#16 = CLOSED_SHELL('',(#17,#34,#138,#225,#291,#318));
#17 = ADVANCED_FACE('',(#18),#29,.F.);
#18 = FACE_BOUND('',#19,.F.);
#19 = EDGE_LOOP('',(#20));
#20 = ORIENTED_EDGE('',*,*,#21,.T.);
#21 = EDGE_CURVE('',#22,#22,#24,.T.);
#22 = VERTEX_POINT('',#23);
#23 = CARTESIAN_POINT('',(-2.5,-0.35,-2.));
#24 = CIRCLE('',#25,0.35);
#25 = AXIS2_PLACEMENT_3D('',#26,#27,#28);
#26 = CARTESIAN_POINT('',(-2.5,0.,-2.));
#27 = DIRECTION('',(-0.,0.,1.));
#28 = DIRECTION('',(1.110223024625E-16,-1.,0.));
#29 = PLANE('',#30);
#30 = AXIS2_PLACEMENT_3D('',#31,#32,#33);
#31 = CARTESIAN_POINT('',(-2.5,0.,-2.));
#32 = DIRECTION('',(0.,0.,1.));
#33 = DIRECTION('',(1.110223024625E-16,-1.,0.));
#34 = ADVANCED_FACE('',(#35),#133,.T.);
#35 = FACE_BOUND('',#36,.F.);
#36 = EDGE_LOOP('',(#37,#38,#46,#65,#107,#132));
#37 = ORIENTED_EDGE('',*,*,#21,.F.);
#38 = ORIENTED_EDGE('',*,*,#39,.T.);
#39 = EDGE_CURVE('',#22,#40,#42,.T.);
#40 = VERTEX_POINT('',#41);
#41 = CARTESIAN_POINT('',(-2.5,-0.35,1.070375291484));
#42 = LINE('',#43,#44);
#43 = CARTESIAN_POINT('',(-2.5,-0.35,-2.));
#44 = VECTOR('',#45,1.);
#45 = DIRECTION('',(0.,0.,1.));
#46 = ORIENTED_EDGE('',*,*,#47,.T.);
#47 = EDGE_CURVE('',#40,#48,#50,.T.);
#48 = VERTEX_POINT('',#49);
#49 = CARTESIAN_POINT('',(-2.15,-4.440892080918E-16,0.537638890794));
#50 = B_SPLINE_CURVE_WITH_KNOTS('',7,(#51,#52,#53,#54,#55,#56,#57,#58,
#59,#60,#61,#62,#63,#64),.UNSPECIFIED.,.F.,.F.,(8,6,8),(0.,
0.636236310793,1.),.UNSPECIFIED.);
#51 = CARTESIAN_POINT('',(-2.5,-0.35,1.070375291484));
#52 = CARTESIAN_POINT('',(-2.445549725173,-0.349999994751,1.040322975528
));
#53 = CARTESIAN_POINT('',(-2.393145528518,-0.340116711286,1.001159266153
));
#54 = CARTESIAN_POINT('',(-2.344544473045,-0.321691129913,0.955529327624
));
#55 = CARTESIAN_POINT('',(-2.300755010646,-0.296123411217,0.905718518129
));
#56 = CARTESIAN_POINT('',(-2.262426715586,-0.264568335872,0.853391724748
));
#57 = CARTESIAN_POINT('',(-2.230022363489,-0.227949648785,0.799794659645
));
#58 = CARTESIAN_POINT('',(-2.18932697047,-0.163554647398,0.715157276433)
);
#59 = CARTESIAN_POINT('',(-2.1766732997,-0.138740574178,0.684330283016)
);
#60 = CARTESIAN_POINT('',(-2.16628221149,-0.112700001841,0.653684651005)
);
#61 = CARTESIAN_POINT('',(-2.158281134644,-8.560271985847E-02,
0.623445141903));
#62 = CARTESIAN_POINT('',(-2.152806823217,-5.763623965863E-02,
0.593848631709));
#63 = CARTESIAN_POINT('',(-2.15,-2.901673794242E-02,0.565151811963));
#64 = CARTESIAN_POINT('',(-2.15,0.,0.537638890794));
#65 = ORIENTED_EDGE('',*,*,#66,.T.);
#66 = EDGE_CURVE('',#48,#67,#69,.T.);
#67 = VERTEX_POINT('',#68);
#68 = CARTESIAN_POINT('',(-2.85,-4.440892080918E-16,0.896012329948));
#69 = B_SPLINE_CURVE_WITH_KNOTS('',6,(#70,#71,#72,#73,#74,#75,#76,#77,
#78,#79,#80,#81,#82,#83,#84,#85,#86,#87,#88,#89,#90,#91,#92,#93,#94,
#95,#96,#97,#98,#99,#100,#101,#102,#103,#104,#105,#106),
.UNSPECIFIED.,.F.,.F.,(7,5,5,5,5,5,5,7),(0.,0.190429854447,
0.465569603877,0.538951348995,0.666322715579,0.782868991922,
0.846769934221,1.),.UNSPECIFIED.);
#70 = CARTESIAN_POINT('',(-2.15,-9.151608538083E-16,0.537638890794));
#71 = CARTESIAN_POINT('',(-2.15,3.385286067981E-02,0.569737298584));
#72 = CARTESIAN_POINT('',(-2.153929552445,6.714959073993E-02,
0.603493164442));
#73 = CARTESIAN_POINT('',(-2.161544821119,9.944256597989E-02,
0.63840912422));
#74 = CARTESIAN_POINT('',(-2.172598731667,0.130376582154,0.674052019078)
);
#75 = CARTESIAN_POINT('',(-2.186859719344,0.1596505534,0.710025941815));
#76 = CARTESIAN_POINT('',(-2.229083874352,0.226464615597,0.797842810584)
);
#77 = CARTESIAN_POINT('',(-2.260287331803,0.261838782493,0.849560083303)
);
#78 = CARTESIAN_POINT('',(-2.297152242754,0.292316047385,0.900005866707)
);
#79 = CARTESIAN_POINT('',(-2.339164322748,0.316974900451,0.947910362368)
);
#80 = CARTESIAN_POINT('',(-2.385657864555,0.334652412928,0.991538278355)
);
#81 = CARTESIAN_POINT('',(-2.448727470857,0.346487633279,1.038456516143)
);
#82 = CARTESIAN_POINT('',(-2.462235745369,0.348385676883,1.047862424667)
);
#83 = CARTESIAN_POINT('',(-2.475947072706,0.349664644657,1.056750386281)
);
#84 = CARTESIAN_POINT('',(-2.48982973322,0.350298708396,1.065070874011)
);
#85 = CARTESIAN_POINT('',(-2.503845614132,0.350263702936,1.072772391076)
);
#86 = CARTESIAN_POINT('',(-2.542430725897,0.348282261501,1.092008693713)
);
#87 = CARTESIAN_POINT('',(-2.567183492787,0.344948143992,1.102197800401)
);
#88 = CARTESIAN_POINT('',(-2.59196027489,0.339430918768,1.110097180238)
);
#89 = CARTESIAN_POINT('',(-2.616446803181,0.331667723502,1.115441872938)
);
#90 = CARTESIAN_POINT('',(-2.640270158448,0.321695603488,1.118050487375)
);
#91 = CARTESIAN_POINT('',(-2.683926272108,0.298708675114,1.11778343064)
);
#92 = CARTESIAN_POINT('',(-2.703937734468,0.286018373259,1.115355028575)
);
#93 = CARTESIAN_POINT('',(-2.722813955679,0.271756855423,1.110610630279)
);
#94 = CARTESIAN_POINT('',(-2.740340450378,0.256126830955,1.103658049489)
);
#95 = CARTESIAN_POINT('',(-2.756373535609,0.239361898982,1.094683785321)
);
#96 = CARTESIAN_POINT('',(-2.778769066778,0.21200137552,1.078000844333)
);
#97 = CARTESIAN_POINT('',(-2.786229766347,0.202038039046,1.071550488918)
);
#98 = CARTESIAN_POINT('',(-2.793208994767,0.19183608065,1.064592456439)
);
#99 = CARTESIAN_POINT('',(-2.799701187004,0.181429599779,1.057163205814)
);
#100 = CARTESIAN_POINT('',(-2.805705163274,0.17085022952,1.049298922628)
);
#101 = CARTESIAN_POINT('',(-2.824453492277,0.134410813841,1.021213966113
));
#102 = CARTESIAN_POINT('',(-2.834882571576,0.107873123947,0.99909559468)
);
#103 = CARTESIAN_POINT('',(-2.842547240915,8.088870856406E-02,
0.975139430383));
#104 = CARTESIAN_POINT('',(-2.847548488764,5.376540442822E-02,
0.949762188768));
#105 = CARTESIAN_POINT('',(-2.85,2.674005063396E-02,0.923298167422));
#106 = CARTESIAN_POINT('',(-2.85,-8.881784197001E-16,0.896012329948));
#107 = ORIENTED_EDGE('',*,*,#108,.T.);
#108 = EDGE_CURVE('',#67,#40,#109,.T.);
#109 = B_SPLINE_CURVE_WITH_KNOTS('',6,(#110,#111,#112,#113,#114,#115,
#116,#117,#118,#119,#120,#121,#122,#123,#124,#125,#126,#127,#128,
#129,#130,#131),.UNSPECIFIED.,.F.,.F.,(7,5,5,5,7),(0.,0.321953217101
,0.454631379435,0.700101742782,1.),.UNSPECIFIED.);
#110 = CARTESIAN_POINT('',(-2.85,0.,0.896012329948));
#111 = CARTESIAN_POINT('',(-2.85,-2.678130801582E-02,0.923340266901));
#112 = CARTESIAN_POINT('',(-2.847540918184,-5.384876701969E-02,
0.949843816128));
#113 = CARTESIAN_POINT('',(-2.842524084483,-8.101420480797E-02,
0.975256839698));
#114 = CARTESIAN_POINT('',(-2.834835246038,-0.108039624056,
0.999243394679));
#115 = CARTESIAN_POINT('',(-2.824372977794,-0.1346154968,1.021384525166)
);
#116 = CARTESIAN_POINT('',(-2.805630435592,-0.170975293995,1.04938995322
));
#117 = CARTESIAN_POINT('',(-2.799684189505,-0.181444336946,
1.057169647212));
#118 = CARTESIAN_POINT('',(-2.7932597369,-0.19174386378,1.064523030727)
);
#119 = CARTESIAN_POINT('',(-2.786358233427,-0.201843212162,
1.071415035929));
#120 = CARTESIAN_POINT('',(-2.778985038351,-0.211709350159,
1.077810326581));
#121 = CARTESIAN_POINT('',(-2.756657208744,-0.239065891278,
1.094525648253));
#122 = CARTESIAN_POINT('',(-2.740581474284,-0.255913508726,
1.103564153515));
#123 = CARTESIAN_POINT('',(-2.722998951786,-0.271619635537,
1.110566851666));
#124 = CARTESIAN_POINT('',(-2.704054484863,-0.285947688257,
1.115344452057));
#125 = CARTESIAN_POINT('',(-2.683964874596,-0.298692303629,
1.117787429458));
#126 = CARTESIAN_POINT('',(-2.637433505389,-0.323184389345,
1.118062655698));
#127 = CARTESIAN_POINT('',(-2.610553393809,-0.334093480519,
1.114752525687));
#128 = CARTESIAN_POINT('',(-2.58289614938,-0.342191610204,1.107997645181
));
#129 = CARTESIAN_POINT('',(-2.554989465076,-0.347453354227,
1.098086411259));
#130 = CARTESIAN_POINT('',(-2.52725323546,-0.349999997373,1.085416951688
));
#131 = CARTESIAN_POINT('',(-2.5,-0.35,1.070375291484));
#132 = ORIENTED_EDGE('',*,*,#39,.F.);
#133 = CYLINDRICAL_SURFACE('',#134,0.35);
#134 = AXIS2_PLACEMENT_3D('',#135,#136,#137);
#135 = CARTESIAN_POINT('',(-2.5,0.,-2.));
#136 = DIRECTION('',(-0.,0.,-1.));
#137 = DIRECTION('',(1.110223024625E-16,-1.,0.));
#138 = ADVANCED_FACE('',(#139),#220,.T.);
#139 = FACE_BOUND('',#140,.T.);
#140 = EDGE_LOOP('',(#141,#152,#159,#160,#161,#170,#212,#219));
#141 = ORIENTED_EDGE('',*,*,#142,.F.);
#142 = EDGE_CURVE('',#143,#145,#147,.T.);
#143 = VERTEX_POINT('',#144);
#144 = CARTESIAN_POINT('',(-5.5,-4.440892080918E-16,5.6));
#145 = VERTEX_POINT('',#146);
#146 = CARTESIAN_POINT('',(-4.440892098501E-16,-2.5,5.6));
#147 = CIRCLE('',#148,7.3);
#148 = AXIS2_PLACEMENT_3D('',#149,#150,#151);
#149 = CARTESIAN_POINT('',(3.552713678801E-15,4.8,5.6));
#150 = DIRECTION('',(0.,0.,1.));
#151 = DIRECTION('',(-0.753424657534,-0.657534246575,0.));
#152 = ORIENTED_EDGE('',*,*,#153,.T.);
#153 = EDGE_CURVE('',#143,#67,#154,.T.);
#154 = CIRCLE('',#155,5.5);
#155 = AXIS2_PLACEMENT_3D('',#156,#157,#158);
#156 = CARTESIAN_POINT('',(0.,-4.440892080918E-16,5.6));
#157 = DIRECTION('',(0.,-1.,0.));
#158 = DIRECTION('',(-1.,0.,0.));
#159 = ORIENTED_EDGE('',*,*,#108,.T.);
#160 = ORIENTED_EDGE('',*,*,#47,.T.);
#161 = ORIENTED_EDGE('',*,*,#162,.T.);
#162 = EDGE_CURVE('',#48,#163,#165,.T.);
#163 = VERTEX_POINT('',#164);
#164 = CARTESIAN_POINT('',(2.15,-4.440892080918E-16,0.537638890794));
#165 = CIRCLE('',#166,5.5);
#166 = AXIS2_PLACEMENT_3D('',#167,#168,#169);
#167 = CARTESIAN_POINT('',(0.,-4.440892080918E-16,5.6));
#168 = DIRECTION('',(0.,-1.,0.));
#169 = DIRECTION('',(-1.,0.,0.));
#170 = ORIENTED_EDGE('',*,*,#171,.T.);
#171 = EDGE_CURVE('',#163,#172,#174,.T.);
#172 = VERTEX_POINT('',#173);
#173 = CARTESIAN_POINT('',(2.85,-4.440892080918E-16,0.896012329948));
#174 = B_SPLINE_CURVE_WITH_KNOTS('',6,(#175,#176,#177,#178,#179,#180,
#181,#182,#183,#184,#185,#186,#187,#188,#189,#190,#191,#192,#193,
#194,#195,#196,#197,#198,#199,#200,#201,#202,#203,#204,#205,#206,
#207,#208,#209,#210,#211),.UNSPECIFIED.,.F.,.F.,(7,5,5,5,5,5,5,7),(
0.,0.190429854447,0.465569603876,0.538951348994,0.666322715578,
0.782868991922,0.846769934221,1.),.UNSPECIFIED.);
#175 = CARTESIAN_POINT('',(2.15,0.,0.537638890794));
#176 = CARTESIAN_POINT('',(2.15,-3.385286067981E-02,0.569737298584));
#177 = CARTESIAN_POINT('',(2.153929552445,-6.714959073992E-02,
0.603493164442));
#178 = CARTESIAN_POINT('',(2.161544821119,-9.944256597989E-02,
0.63840912422));
#179 = CARTESIAN_POINT('',(2.172598731667,-0.130376582154,0.674052019078
));
#180 = CARTESIAN_POINT('',(2.186859719344,-0.1596505534,0.710025941815)
);
#181 = CARTESIAN_POINT('',(2.229083874352,-0.226464615597,0.797842810584
));
#182 = CARTESIAN_POINT('',(2.260287331803,-0.261838782493,0.849560083303
));
#183 = CARTESIAN_POINT('',(2.297152242754,-0.292316047385,0.900005866707
));
#184 = CARTESIAN_POINT('',(2.339164322748,-0.316974900451,0.947910362368
));
#185 = CARTESIAN_POINT('',(2.385657864555,-0.334652412928,0.991538278355
));
#186 = CARTESIAN_POINT('',(2.448727470857,-0.346487633279,1.038456516143
));
#187 = CARTESIAN_POINT('',(2.462235745369,-0.348385676883,1.047862424667
));
#188 = CARTESIAN_POINT('',(2.475947072706,-0.349664644657,1.056750386281
));
#189 = CARTESIAN_POINT('',(2.48982973322,-0.350298708396,1.065070874011)
);
#190 = CARTESIAN_POINT('',(2.503845614132,-0.350263702936,1.072772391076
));
#191 = CARTESIAN_POINT('',(2.542430725897,-0.348282261501,1.092008693713
));
#192 = CARTESIAN_POINT('',(2.567183492787,-0.344948143992,1.102197800401
));
#193 = CARTESIAN_POINT('',(2.59196027489,-0.339430918768,1.110097180238)
);
#194 = CARTESIAN_POINT('',(2.616446803181,-0.331667723502,1.115441872938
));
#195 = CARTESIAN_POINT('',(2.640270158448,-0.321695603488,1.118050487375
));
#196 = CARTESIAN_POINT('',(2.683926272108,-0.298708675114,1.11778343064)
);
#197 = CARTESIAN_POINT('',(2.703937734468,-0.286018373259,1.115355028575
));
#198 = CARTESIAN_POINT('',(2.722813955679,-0.271756855423,1.110610630279
));
#199 = CARTESIAN_POINT('',(2.740340450378,-0.256126830955,1.103658049489
));
#200 = CARTESIAN_POINT('',(2.756373535609,-0.239361898982,1.094683785321
));
#201 = CARTESIAN_POINT('',(2.778769066778,-0.21200137552,1.078000844333)
);
#202 = CARTESIAN_POINT('',(2.786229766347,-0.202038039046,1.071550488918
));
#203 = CARTESIAN_POINT('',(2.793208994767,-0.19183608065,1.064592456439)
);
#204 = CARTESIAN_POINT('',(2.799701187004,-0.181429599779,1.057163205814
));
#205 = CARTESIAN_POINT('',(2.805705163274,-0.17085022952,1.049298922628)
);
#206 = CARTESIAN_POINT('',(2.824453492277,-0.134410813841,1.021213966113
));
#207 = CARTESIAN_POINT('',(2.834882571576,-0.107873123948,0.99909559468)
);
#208 = CARTESIAN_POINT('',(2.842547240915,-8.088870856396E-02,
0.975139430383));
#209 = CARTESIAN_POINT('',(2.847548488764,-5.376540442833E-02,
0.949762188768));
#210 = CARTESIAN_POINT('',(2.85,-2.674005063391E-02,0.923298167422));
#211 = CARTESIAN_POINT('',(2.85,0.,0.896012329948));
#212 = ORIENTED_EDGE('',*,*,#213,.T.);
#213 = EDGE_CURVE('',#172,#143,#214,.T.);
#214 = CIRCLE('',#215,5.5);
#215 = AXIS2_PLACEMENT_3D('',#216,#217,#218);
#216 = CARTESIAN_POINT('',(0.,-4.440892080918E-16,5.6));
#217 = DIRECTION('',(0.,-1.,0.));
#218 = DIRECTION('',(-1.,0.,0.));
#219 = ORIENTED_EDGE('',*,*,#142,.T.);
#220 = SPHERICAL_SURFACE('',#221,7.3);
#221 = AXIS2_PLACEMENT_3D('',#222,#223,#224);
#222 = CARTESIAN_POINT('',(3.552713678801E-15,4.8,5.6));
#223 = DIRECTION('',(0.,-1.,0.));
#224 = DIRECTION('',(-1.,0.,0.));
#225 = ADVANCED_FACE('',(#226),#286,.T.);
#226 = FACE_BOUND('',#227,.T.);
#227 = EDGE_LOOP('',(#228,#237,#238,#239,#266,#283,#284,#285));
#228 = ORIENTED_EDGE('',*,*,#229,.F.);
#229 = EDGE_CURVE('',#230,#143,#232,.T.);
#230 = VERTEX_POINT('',#231);
#231 = CARTESIAN_POINT('',(0.,2.5,5.6));
#232 = CIRCLE('',#233,7.3);
#233 = AXIS2_PLACEMENT_3D('',#234,#235,#236);
#234 = CARTESIAN_POINT('',(2.109423746788E-15,-4.8,5.6));
#235 = DIRECTION('',(0.,0.,1.));
#236 = DIRECTION('',(-2.889621570942E-16,1.,0.));
#237 = ORIENTED_EDGE('',*,*,#229,.T.);
#238 = ORIENTED_EDGE('',*,*,#213,.F.);
#239 = ORIENTED_EDGE('',*,*,#240,.T.);
#240 = EDGE_CURVE('',#172,#241,#243,.T.);
#241 = VERTEX_POINT('',#242);
#242 = CARTESIAN_POINT('',(2.5,0.35,1.070375291484));
#243 = B_SPLINE_CURVE_WITH_KNOTS('',6,(#244,#245,#246,#247,#248,#249,
#250,#251,#252,#253,#254,#255,#256,#257,#258,#259,#260,#261,#262,
#263,#264,#265),.UNSPECIFIED.,.F.,.F.,(7,5,5,5,7),(0.,0.321953217101
,0.454631379436,0.700101742782,1.),.UNSPECIFIED.);
#244 = CARTESIAN_POINT('',(2.85,-1.000886129749E-15,0.896012329948));
#245 = CARTESIAN_POINT('',(2.85,2.678130801582E-02,0.923340266901));
#246 = CARTESIAN_POINT('',(2.847540918184,5.384876701969E-02,
0.949843816128));
#247 = CARTESIAN_POINT('',(2.842524084483,8.101420480797E-02,
0.975256839698));
#248 = CARTESIAN_POINT('',(2.834835246038,0.108039624056,0.999243394679)
);
#249 = CARTESIAN_POINT('',(2.824372977794,0.1346154968,1.021384525166));
#250 = CARTESIAN_POINT('',(2.805630435592,0.170975293995,1.04938995322)
);
#251 = CARTESIAN_POINT('',(2.799684189505,0.181444336946,1.057169647212)
);
#252 = CARTESIAN_POINT('',(2.7932597369,0.19174386378,1.064523030727));
#253 = CARTESIAN_POINT('',(2.786358233427,0.201843212162,1.071415035929)
);
#254 = CARTESIAN_POINT('',(2.778985038351,0.211709350159,1.077810326581)
);
#255 = CARTESIAN_POINT('',(2.756657208744,0.239065891278,1.094525648253)
);
#256 = CARTESIAN_POINT('',(2.740581474284,0.255913508726,1.103564153515)
);
#257 = CARTESIAN_POINT('',(2.722998951786,0.271619635537,1.110566851666)
);
#258 = CARTESIAN_POINT('',(2.704054484863,0.285947688257,1.115344452057)
);
#259 = CARTESIAN_POINT('',(2.683964874596,0.298692303629,1.117787429458)
);
#260 = CARTESIAN_POINT('',(2.637433505389,0.323184389345,1.118062655698)
);
#261 = CARTESIAN_POINT('',(2.610553393809,0.334093480519,1.114752525687)
);
#262 = CARTESIAN_POINT('',(2.58289614938,0.342191610204,1.107997645181)
);
#263 = CARTESIAN_POINT('',(2.554989465076,0.347453354227,1.098086411259)
);
#264 = CARTESIAN_POINT('',(2.52725323546,0.349999997373,1.085416951688)
);
#265 = CARTESIAN_POINT('',(2.5,0.35,1.070375291484));
#266 = ORIENTED_EDGE('',*,*,#267,.T.);
#267 = EDGE_CURVE('',#241,#163,#268,.T.);
#268 = B_SPLINE_CURVE_WITH_KNOTS('',7,(#269,#270,#271,#272,#273,#274,
#275,#276,#277,#278,#279,#280,#281,#282),.UNSPECIFIED.,.F.,.F.,(8,6,
8),(0.,0.636236310793,1.),.UNSPECIFIED.);
#269 = CARTESIAN_POINT('',(2.5,0.35,1.070375291484));
#270 = CARTESIAN_POINT('',(2.445549725173,0.349999994751,1.040322975528)
);
#271 = CARTESIAN_POINT('',(2.393145528518,0.340116711286,1.001159266153)
);
#272 = CARTESIAN_POINT('',(2.344544473045,0.321691129913,0.955529327624)
);
#273 = CARTESIAN_POINT('',(2.300755010646,0.296123411217,0.905718518129)
);
#274 = CARTESIAN_POINT('',(2.262426715586,0.264568335872,0.853391724748)
);
#275 = CARTESIAN_POINT('',(2.230022363489,0.227949648785,0.799794659645)
);
#276 = CARTESIAN_POINT('',(2.18932697047,0.163554647398,0.715157276433)
);
#277 = CARTESIAN_POINT('',(2.1766732997,0.138740574178,0.684330283016));
#278 = CARTESIAN_POINT('',(2.16628221149,0.112700001841,0.653684651005)
);
#279 = CARTESIAN_POINT('',(2.158281134644,8.560271985847E-02,
0.623445141903));
#280 = CARTESIAN_POINT('',(2.152806823217,5.763623965862E-02,
0.593848631709));
#281 = CARTESIAN_POINT('',(2.15,2.901673794243E-02,0.565151811963));
#282 = CARTESIAN_POINT('',(2.15,-8.881784197001E-16,0.537638890794));
#283 = ORIENTED_EDGE('',*,*,#162,.F.);
#284 = ORIENTED_EDGE('',*,*,#66,.T.);
#285 = ORIENTED_EDGE('',*,*,#153,.F.);
#286 = SPHERICAL_SURFACE('',#287,7.3);
#287 = AXIS2_PLACEMENT_3D('',#288,#289,#290);
#288 = CARTESIAN_POINT('',(2.109423746788E-15,-4.8,5.6));
#289 = DIRECTION('',(0.,-1.,0.));
#290 = DIRECTION('',(-1.,0.,0.));
#291 = ADVANCED_FACE('',(#292),#313,.T.);
#292 = FACE_BOUND('',#293,.F.);
#293 = EDGE_LOOP('',(#294,#303,#309,#310,#311,#312));
#294 = ORIENTED_EDGE('',*,*,#295,.F.);
#295 = EDGE_CURVE('',#296,#296,#298,.T.);
#296 = VERTEX_POINT('',#297);
#297 = CARTESIAN_POINT('',(2.5,0.35,-2.));
#298 = CIRCLE('',#299,0.35);
#299 = AXIS2_PLACEMENT_3D('',#300,#301,#302);
#300 = CARTESIAN_POINT('',(2.5,0.,-2.));
#301 = DIRECTION('',(0.,-0.,1.));
#302 = DIRECTION('',(1.144237745222E-17,1.,0.));
#303 = ORIENTED_EDGE('',*,*,#304,.T.);
#304 = EDGE_CURVE('',#296,#241,#305,.T.);
#305 = LINE('',#306,#307);
#306 = CARTESIAN_POINT('',(2.5,0.35,-2.));
#307 = VECTOR('',#308,1.);
#308 = DIRECTION('',(0.,0.,1.));
#309 = ORIENTED_EDGE('',*,*,#267,.T.);
#310 = ORIENTED_EDGE('',*,*,#171,.T.);
#311 = ORIENTED_EDGE('',*,*,#240,.T.);
#312 = ORIENTED_EDGE('',*,*,#304,.F.);
#313 = CYLINDRICAL_SURFACE('',#314,0.35);
#314 = AXIS2_PLACEMENT_3D('',#315,#316,#317);
#315 = CARTESIAN_POINT('',(2.5,0.,-2.));
#316 = DIRECTION('',(0.,-0.,-1.));
#317 = DIRECTION('',(1.144237745222E-17,1.,0.));
#318 = ADVANCED_FACE('',(#319),#322,.F.);
#319 = FACE_BOUND('',#320,.F.);
#320 = EDGE_LOOP('',(#321));
#321 = ORIENTED_EDGE('',*,*,#295,.T.);
#322 = PLANE('',#323);
#323 = AXIS2_PLACEMENT_3D('',#324,#325,#326);
#324 = CARTESIAN_POINT('',(2.5,0.,-2.));
#325 = DIRECTION('',(0.,0.,1.));
#326 = DIRECTION('',(1.144237745222E-17,1.,0.));
#327 = ( GEOMETRIC_REPRESENTATION_CONTEXT(3)
GLOBAL_UNCERTAINTY_ASSIGNED_CONTEXT((#331)) GLOBAL_UNIT_ASSIGNED_CONTEXT
((#328,#329,#330)) REPRESENTATION_CONTEXT('Context #1',
'3D Context with UNIT and UNCERTAINTY') );
#328 = ( LENGTH_UNIT() NAMED_UNIT(*) SI_UNIT(.MILLI.,.METRE.) );
#329 = ( NAMED_UNIT(*) PLANE_ANGLE_UNIT() SI_UNIT($,.RADIAN.) );
#330 = ( NAMED_UNIT(*) SI_UNIT($,.STERADIAN.) SOLID_ANGLE_UNIT() );
#331 = UNCERTAINTY_MEASURE_WITH_UNIT(LENGTH_MEASURE(2.E-07),#328,
'distance_accuracy_value','confusion accuracy');
#332 = PRODUCT_TYPE('part',$,(#7));
#333 = MECHANICAL_DESIGN_GEOMETRIC_PRESENTATION_REPRESENTATION('',(#334,
#342,#349,#357,#364,#371),#327);
#334 = STYLED_ITEM('color',(#335),#17);
#335 = PRESENTATION_STYLE_ASSIGNMENT((#336));
#336 = SURFACE_STYLE_USAGE(.BOTH.,#337);
#337 = SURFACE_SIDE_STYLE('',(#338));
#338 = SURFACE_STYLE_FILL_AREA(#339);
#339 = FILL_AREA_STYLE('',(#340));
#340 = FILL_AREA_STYLE_COLOUR('',#341);
#341 = COLOUR_RGB('',0.824000000954,0.819999992847,0.78100001812);
#342 = STYLED_ITEM('color',(#343),#34);
#343 = PRESENTATION_STYLE_ASSIGNMENT((#344));
#344 = SURFACE_STYLE_USAGE(.BOTH.,#345);
#345 = SURFACE_SIDE_STYLE('',(#346));
#346 = SURFACE_STYLE_FILL_AREA(#347);
#347 = FILL_AREA_STYLE('',(#348));
#348 = FILL_AREA_STYLE_COLOUR('',#341);
#349 = STYLED_ITEM('color',(#350),#138);
#350 = PRESENTATION_STYLE_ASSIGNMENT((#351));
#351 = SURFACE_STYLE_USAGE(.BOTH.,#352);
#352 = SURFACE_SIDE_STYLE('',(#353));
#353 = SURFACE_STYLE_FILL_AREA(#354);
#354 = FILL_AREA_STYLE('',(#355));
#355 = FILL_AREA_STYLE_COLOUR('',#356);
#356 = COLOUR_RGB('',0.809000015259,0.425999999046,0.148000001907);
#357 = STYLED_ITEM('color',(#358),#225);
#358 = PRESENTATION_STYLE_ASSIGNMENT((#359));
#359 = SURFACE_STYLE_USAGE(.BOTH.,#360);
#360 = SURFACE_SIDE_STYLE('',(#361));
#361 = SURFACE_STYLE_FILL_AREA(#362);
#362 = FILL_AREA_STYLE('',(#363));
#363 = FILL_AREA_STYLE_COLOUR('',#356);
#364 = STYLED_ITEM('color',(#365),#291);
#365 = PRESENTATION_STYLE_ASSIGNMENT((#366));
#366 = SURFACE_STYLE_USAGE(.BOTH.,#367);
#367 = SURFACE_SIDE_STYLE('',(#368));
#368 = SURFACE_STYLE_FILL_AREA(#369);
#369 = FILL_AREA_STYLE('',(#370));
#370 = FILL_AREA_STYLE_COLOUR('',#341);
#371 = STYLED_ITEM('color',(#372),#318);
#372 = PRESENTATION_STYLE_ASSIGNMENT((#373));
#373 = SURFACE_STYLE_USAGE(.BOTH.,#374);
#374 = SURFACE_SIDE_STYLE('',(#375));
#375 = SURFACE_STYLE_FILL_AREA(#376);
#376 = FILL_AREA_STYLE('',(#377));
#377 = FILL_AREA_STYLE_COLOUR('',#341);
ENDSEC;
END-ISO-10303-21;
