ISO-10303-21;
HEADER;
/* C_Disc_D9.0mm_W5.0mm_P5.00mm.step 3D STEP model for use in ECAD systems
 * Copyright (C) 2017, kicad StepUp
 * 
 * This program is free software: you can redistribute it and/or modify
 * it under the terms of the GNU General Public License as published by
 * the Free Software Foundation, either version 3 of the License, or
 * any later version.
 * 
 * This program is distributed in the hope that it will be useful,
 * but WITHOUT ANY WARRANTY; without even the implied warranty of
 * MERCHANTABILITY or FITNESS FOR A PARTICULAR PURPOSE.  See the
 * GNU General Public License for more details.
 * 
 * You should have received a copy of the GNU General Public License
 * along with this program.  If not, see http://www.gnu.org/licenses/.
 * 
 * As a special exception, if you create a design which uses this symbol,
 * and embed this symbol or unaltered portions of this symbol into the design,
 * this symbol does not by itself cause the resulting design to be covered by
 * the GNU General Public License.
 * This exception does not however invalidate any other reasons why the design
 * itself might be covered by the GNU General Public License. 
 * If you modify this symbol, you may extend this exception to your version of the symbol,
 * but you are not obligated to do so.
 * If you do not wish to do so, delete this exception statement from your version
 * Risk disclaimer
 * *USE 3D CAD DATA AT YOUR OWN RISK*
 * *DO NOT RELY UPON ANY INFORMATION FOUND HERE WITHOUT INDEPENDENT VERIFICATION.*
 * 
 */

FILE_DESCRIPTION(
/* description */ ('model of C_Disc_D9.0mm_W5.0mm_P5.00mm'),
/* implementation_level */ '2;1');

FILE_NAME(
/* name */ 'C_Disc_D9.0mm_W5.0mm_P5.00mm.step',
/* time_stamp */ '2017-07-29T15:42:32',
/* author */ ('kicad StepUp','ksu'),
/* organization */ ('FreeCAD'),
/* preprocessor_version */ 'OCC',
/* originating_system */ 'kicad StepUp',
/* authorisation */ '');

FILE_SCHEMA(('AUTOMOTIVE_DESIGN_CC2 { 1 2 10303 214 -1 1 5 4 }'));
ENDSEC;

DATA;
#1 = APPLICATION_PROTOCOL_DEFINITION('committee draft',
'automotive_design',1997,#2);
#2 = APPLICATION_CONTEXT(
'core data for automotive mechanical design processes');
#3 = SHAPE_DEFINITION_REPRESENTATION(#4,#10);
#4 = PRODUCT_DEFINITION_SHAPE('','',#5);
#5 = PRODUCT_DEFINITION('design','',#6,#9);
#6 = PRODUCT_DEFINITION_FORMATION('','',#7);
#7 = PRODUCT('C_Disc_D90mm_W50mm_P500mm','C_Disc_D90mm_W50mm_P500mm','',
(#8));
#8 = MECHANICAL_CONTEXT('',#2,'mechanical');
#9 = PRODUCT_DEFINITION_CONTEXT('part definition',#2,'design');
#10 = ADVANCED_BREP_SHAPE_REPRESENTATION('',(#11,#15),#373);
#11 = AXIS2_PLACEMENT_3D('',#12,#13,#14);
#12 = CARTESIAN_POINT('',(0.,0.,0.));
#13 = DIRECTION('',(0.,0.,1.));
#14 = DIRECTION('',(1.,0.,-0.));
#15 = MANIFOLD_SOLID_BREP('',#16);
#16 = CLOSED_SHELL('',(#17,#34,#161,#255,#337,#364));
#17 = ADVANCED_FACE('',(#18),#29,.T.);
#18 = FACE_BOUND('',#19,.F.);
#19 = EDGE_LOOP('',(#20));
#20 = ORIENTED_EDGE('',*,*,#21,.T.);
#21 = EDGE_CURVE('',#22,#22,#24,.T.);
#22 = VERTEX_POINT('',#23);
#23 = CARTESIAN_POINT('',(2.053912595557E-16,-0.35,-2.));
#24 = CIRCLE('',#25,0.35);
#25 = AXIS2_PLACEMENT_3D('',#26,#27,#28);
#26 = CARTESIAN_POINT('',(1.665334536938E-16,0.,-2.));
#27 = DIRECTION('',(-0.,0.,1.));
#28 = DIRECTION('',(1.110223024625E-16,-1.,0.));
#29 = PLANE('',#30);
#30 = AXIS2_PLACEMENT_3D('',#31,#32,#33);
#31 = CARTESIAN_POINT('',(2.053912595557E-16,-0.35,-2.));
#32 = DIRECTION('',(0.,0.,-1.));
#33 = DIRECTION('',(-1.110223024625E-16,1.,0.));
#34 = ADVANCED_FACE('',(#35),#156,.T.);
#35 = FACE_BOUND('',#36,.F.);
#36 = EDGE_LOOP('',(#37,#38,#46,#71,#120,#155));
#37 = ORIENTED_EDGE('',*,*,#21,.F.);
#38 = ORIENTED_EDGE('',*,*,#39,.T.);
#39 = EDGE_CURVE('',#22,#40,#42,.T.);
#40 = VERTEX_POINT('',#41);
#41 = CARTESIAN_POINT('',(0.,-0.35,1.147826771438));
#42 = LINE('',#43,#44);
#43 = CARTESIAN_POINT('',(2.053912595557E-16,-0.35,-2.));
#44 = VECTOR('',#45,1.);
#45 = DIRECTION('',(0.,0.,1.));
#46 = ORIENTED_EDGE('',*,*,#47,.T.);
#47 = EDGE_CURVE('',#40,#48,#50,.T.);
#48 = VERTEX_POINT('',#49);
#49 = CARTESIAN_POINT('',(0.35,8.881784197001E-16,0.646836709672));
#50 = B_SPLINE_CURVE_WITH_KNOTS('',7,(#51,#52,#53,#54,#55,#56,#57,#58,
#59,#60,#61,#62,#63,#64,#65,#66,#67,#68,#69,#70),.UNSPECIFIED.,.F.,
.F.,(8,6,6,8),(0.,0.245188518864,0.62377537516,1.),.UNSPECIFIED.);
#51 = CARTESIAN_POINT('',(4.440892098501E-16,-0.35,1.147826771438));
#52 = CARTESIAN_POINT('',(2.221822306809E-02,-0.349999997912,
1.131736743663));
#53 = CARTESIAN_POINT('',(4.371709554491E-02,-0.348354683426,
1.114920661808));
#54 = CARTESIAN_POINT('',(6.447571174446E-02,-0.345254794085,
1.097562587612));
#55 = CARTESIAN_POINT('',(8.447270662454E-02,-0.340846112867,
1.079805386814));
#56 = CARTESIAN_POINT('',(0.103696410973,-0.33524854297,1.06175982765));
#57 = CARTESIAN_POINT('',(0.122148021888,-0.328560846164,1.043507587864)
);
#58 = CARTESIAN_POINT('',(0.167151926994,-0.308946614981,0.996672844408)
);
#59 = CARTESIAN_POINT('',(0.192609311529,-0.294623470097,0.96791524394)
);
#60 = CARTESIAN_POINT('',(0.216237432734,-0.278155420771,0.939031693908)
);
#61 = CARTESIAN_POINT('',(0.237989792486,-0.259726461481,0.910198651174)
);
#62 = CARTESIAN_POINT('',(0.257808217966,-0.239492149768,0.881569199375)
);
#63 = CARTESIAN_POINT('',(0.275615516642,-0.21756938338,0.853272781543)
);
#64 = CARTESIAN_POINT('',(0.306883489812,-0.170625076446,0.797739727098)
);
#65 = CARTESIAN_POINT('',(0.320347340912,-0.145658705465,0.770538931143)
);
#66 = CARTESIAN_POINT('',(0.331591408588,-0.11919224892,0.743917622941)
);
#67 = CARTESIAN_POINT('',(0.340444619638,-9.129747891151E-02,
0.718022915858));
#68 = CARTESIAN_POINT('',(0.346672333525,-6.206168424684E-02,
0.693046848394));
#69 = CARTESIAN_POINT('',(0.35,-3.159687058239E-02,0.669216568821));
#70 = CARTESIAN_POINT('',(0.35,1.33226762955E-15,0.646836709672));
#71 = ORIENTED_EDGE('',*,*,#72,.T.);
#72 = EDGE_CURVE('',#48,#73,#75,.T.);
#73 = VERTEX_POINT('',#74);
#74 = CARTESIAN_POINT('',(-0.35,8.881784197001E-16,1.117543970127));
#75 = B_SPLINE_CURVE_WITH_KNOTS('',7,(#76,#77,#78,#79,#80,#81,#82,#83,
#84,#85,#86,#87,#88,#89,#90,#91,#92,#93,#94,#95,#96,#97,#98,#99,#100
,#101,#102,#103,#104,#105,#106,#107,#108,#109,#110,#111,#112,#113,
#114,#115,#116,#117,#118,#119),.UNSPECIFIED.,.F.,.F.,(8,6,6,6,6,6,6,
8),(0.,0.189207584604,0.367254743326,0.517866737769,0.648241354216,
0.714728483416,0.852917192626,1.),.UNSPECIFIED.);
#76 = CARTESIAN_POINT('',(0.35,4.440892098501E-16,0.646836709672));
#77 = CARTESIAN_POINT('',(0.35,2.454616369446E-02,0.664222598717));
#78 = CARTESIAN_POINT('',(0.347991779034,4.855670095856E-02,
0.682588332021));
#79 = CARTESIAN_POINT('',(0.344132140783,7.202297579018E-02,
0.701846676159));
#80 = CARTESIAN_POINT('',(0.33850808847,9.492024429519E-02,
0.721942142931));
#81 = CARTESIAN_POINT('',(0.331169164318,0.117214426495,0.742835807371)
);
#82 = CARTESIAN_POINT('',(0.322135755435,0.138863517674,0.764501811877)
);
#83 = CARTESIAN_POINT('',(0.301265207448,0.179528016117,0.808046044623)
);
#84 = CARTESIAN_POINT('',(0.289632506825,0.198608923415,0.829820710882)
);
#85 = CARTESIAN_POINT('',(0.276464184243,0.217021456995,0.852263216879)
);
#86 = CARTESIAN_POINT('',(0.26171428757,0.234700123753,0.875371814084));
#87 = CARTESIAN_POINT('',(0.245308660326,0.251546504004,0.899139959285)
);
#88 = CARTESIAN_POINT('',(0.227155257069,0.267435094714,0.923552278178)
);
#89 = CARTESIAN_POINT('',(0.190067848929,0.294649974925,0.96981421567));
#90 = CARTESIAN_POINT('',(0.171739052957,0.30626284318,0.991412140636));
#91 = CARTESIAN_POINT('',(0.151919715594,0.316951396523,1.013475131082)
);
#92 = CARTESIAN_POINT('',(0.130464917072,0.326553406156,1.035990614605)
);
#93 = CARTESIAN_POINT('',(0.107228775343,0.334793246896,1.058857931789)
);
#94 = CARTESIAN_POINT('',(8.212479458126E-02,0.341340657437,
1.081883867587));
#95 = CARTESIAN_POINT('',(3.139969534734E-02,0.349402329708,
1.124623949041));
#96 = CARTESIAN_POINT('',(6.137126118821E-03,0.351500017156,
1.144505111492));
#97 = CARTESIAN_POINT('',(-2.070094685932E-02,0.351514601516,
1.163976852947));
#98 = CARTESIAN_POINT('',(-4.877119146234E-02,0.348964342417,
1.182390626641));
#99 = CARTESIAN_POINT('',(-7.75420993553E-02,0.343483052694,
1.199025338863));
#100 = CARTESIAN_POINT('',(-0.1062593302,0.33481394293,1.21305958497));
#101 = CARTESIAN_POINT('',(-0.147915249316,0.317573472464,1.22960780567)
);
#102 = CARTESIAN_POINT('',(-0.161683325061,0.311038797951,1.234394575229
));
#103 = CARTESIAN_POINT('',(-0.175058716971,0.303831665434,1.238337768697
));
#104 = CARTESIAN_POINT('',(-0.187959727023,0.296007688457,1.241418422901
));
#105 = CARTESIAN_POINT('',(-0.20031505108,0.287638590298,1.243640041515)
);
#106 = CARTESIAN_POINT('',(-0.212063778897,0.278812203971,1.245028595054
));
#107 = CARTESIAN_POINT('',(-0.246208517456,0.25055306097,1.246887737213)
);
#108 = CARTESIAN_POINT('',(-0.265416414219,0.230782345225,1.244700582122
));
#109 = CARTESIAN_POINT('',(-0.281453611098,0.210930537996,1.240077967167
));
#110 = CARTESIAN_POINT('',(-0.294787615194,0.191355823339,1.233685807682
));
#111 = CARTESIAN_POINT('',(-0.305922671291,0.172203874933,1.226031548811
));
#112 = CARTESIAN_POINT('',(-0.315263211417,0.153378280678,1.217344116913
));
#113 = CARTESIAN_POINT('',(-0.331445967998,0.114519012428,1.19719650898)
);
#114 = CARTESIAN_POINT('',(-0.337971066967,9.476654448733E-02,
1.185739107048));
#115 = CARTESIAN_POINT('',(-0.342952775412,7.528497882453E-02,
1.173418780798));
#116 = CARTESIAN_POINT('',(-0.34654510195,5.607191913756E-02,
1.160358495515));
#117 = CARTESIAN_POINT('',(-0.348867160442,3.71237916495E-02,
1.146652983421));
#118 = CARTESIAN_POINT('',(-0.35,1.843567952174E-02,1.132366814182));
#119 = CARTESIAN_POINT('',(-0.35,4.440892098501E-16,1.117543970127));
#120 = ORIENTED_EDGE('',*,*,#121,.T.);
#121 = EDGE_CURVE('',#73,#40,#122,.T.);
#122 = B_SPLINE_CURVE_WITH_KNOTS('',7,(#123,#124,#125,#126,#127,#128,
#129,#130,#131,#132,#133,#134,#135,#136,#137,#138,#139,#140,#141,
#142,#143,#144,#145,#146,#147,#148,#149,#150,#151,#152,#153,#154),
.UNSPECIFIED.,.F.,.F.,(8,6,6,6,6,8),(0.,0.248153720871,0.414852248166,
0.539848397547,0.748172453783,1.),.UNSPECIFIED.);
#123 = CARTESIAN_POINT('',(-0.35,1.33226762955E-15,1.117543970127));
#124 = CARTESIAN_POINT('',(-0.35,-1.457796083382E-02,1.129265091653));
#125 = CARTESIAN_POINT('',(-0.349292171096,-2.963384992762E-02,
1.140908371454));
#126 = CARTESIAN_POINT('',(-0.347788930373,-4.524977807181E-02,
1.15247583219));
#127 = CARTESIAN_POINT('',(-0.345383245056,-6.149669627224E-02,
1.163946721961));
#128 = CARTESIAN_POINT('',(-0.341880727486,-7.848452203954E-02,
1.175267778744));
#129 = CARTESIAN_POINT('',(-0.337089322708,-9.629708070284E-02,
1.186364852517));
#130 = CARTESIAN_POINT('',(-0.326048712763,-0.127960128408,
1.204306890314));
#131 = CARTESIAN_POINT('',(-0.320965164054,-0.140708532972,
1.211079892277));
#132 = CARTESIAN_POINT('',(-0.31520065803,-0.153445290411,1.217356751833
));
#133 = CARTESIAN_POINT('',(-0.308731192797,-0.166122721071,
1.223076248249));
#134 = CARTESIAN_POINT('',(-0.301542580178,-0.178682473296,
1.228175502491));
#135 = CARTESIAN_POINT('',(-0.293630445709,-0.191055523424,
1.232589977222));
#136 = CARTESIAN_POINT('',(-0.278529002298,-0.212240149983,
1.239000491714));
#137 = CARTESIAN_POINT('',(-0.271654279966,-0.221171340516,
1.241328114944));
#138 = CARTESIAN_POINT('',(-0.264383685877,-0.22991653555,1.243207780381
));
#139 = CARTESIAN_POINT('',(-0.256731344749,-0.238438044991,
1.244617401163));
#140 = CARTESIAN_POINT('',(-0.248717881783,-0.24669970049,1.245541369677
));
#141 = CARTESIAN_POINT('',(-0.240370422672,-0.254666855449,
1.245970557556));
#142 = CARTESIAN_POINT('',(-0.217309742953,-0.275038759527,
1.245788580781));
#143 = CARTESIAN_POINT('',(-0.202050656876,-0.286873021022,
1.244294371611));
#144 = CARTESIAN_POINT('',(-0.1861462716,-0.297623481344,1.24141456351)
);
#145 = CARTESIAN_POINT('',(-0.169766561112,-0.307221969294,
1.237222927114));
#146 = CARTESIAN_POINT('',(-0.153076174793,-0.315644977938,
1.231829586589));
#147 = CARTESIAN_POINT('',(-0.136245119855,-0.322888115984,
1.225365908027));
#148 = CARTESIAN_POINT('',(-9.913544779831E-02,-0.336361396598,
1.209088869994));
#149 = CARTESIAN_POINT('',(-8.043436541794E-02,-0.34149732523,
1.199544375968));
#150 = CARTESIAN_POINT('',(-6.277697378572E-02,-0.345214791513,
1.18963140129));
#151 = CARTESIAN_POINT('',(-4.606075955164E-02,-0.347715282892,
1.179443985191));
#152 = CARTESIAN_POINT('',(-3.009252455612E-02,-0.349273352834,
1.169068571701));
#153 = CARTESIAN_POINT('',(-1.477903045404E-02,-0.349999998611,
1.158529470884));
#154 = CARTESIAN_POINT('',(0.,-0.35,1.147826771438));
#155 = ORIENTED_EDGE('',*,*,#39,.F.);
#156 = CYLINDRICAL_SURFACE('',#157,0.35);
#157 = AXIS2_PLACEMENT_3D('',#158,#159,#160);
#158 = CARTESIAN_POINT('',(1.665334536938E-16,0.,-2.));
#159 = DIRECTION('',(-0.,0.,-1.));
#160 = DIRECTION('',(1.110223024625E-16,-1.,0.));
#161 = ADVANCED_FACE('',(#162),#250,.T.);
#162 = FACE_BOUND('',#163,.T.);
#163 = EDGE_LOOP('',(#164,#175,#182,#183,#184,#193,#242,#249));
#164 = ORIENTED_EDGE('',*,*,#165,.F.);
#165 = EDGE_CURVE('',#166,#168,#170,.T.);
#166 = VERTEX_POINT('',#167);
#167 = CARTESIAN_POINT('',(-2.,8.881784197001E-16,4.6));
#168 = VERTEX_POINT('',#169);
#169 = CARTESIAN_POINT('',(2.5,-2.5,4.6));
#170 = CIRCLE('',#171,5.3);
#171 = AXIS2_PLACEMENT_3D('',#172,#173,#174);
#172 = CARTESIAN_POINT('',(2.5,2.8,4.6));
#173 = DIRECTION('',(0.,0.,1.));
#174 = DIRECTION('',(-0.849056603774,-0.528301886792,0.));
#175 = ORIENTED_EDGE('',*,*,#176,.T.);
#176 = EDGE_CURVE('',#166,#73,#177,.T.);
#177 = CIRCLE('',#178,4.5);
#178 = AXIS2_PLACEMENT_3D('',#179,#180,#181);
#179 = CARTESIAN_POINT('',(2.5,8.881784197001E-16,4.6));
#180 = DIRECTION('',(0.,-1.,0.));
#181 = DIRECTION('',(-1.,0.,0.));
#182 = ORIENTED_EDGE('',*,*,#121,.T.);
#183 = ORIENTED_EDGE('',*,*,#47,.T.);
#184 = ORIENTED_EDGE('',*,*,#185,.T.);
#185 = EDGE_CURVE('',#48,#186,#188,.T.);
#186 = VERTEX_POINT('',#187);
#187 = CARTESIAN_POINT('',(4.65,8.881784197001E-16,0.646836709672));
#188 = CIRCLE('',#189,4.5);
#189 = AXIS2_PLACEMENT_3D('',#190,#191,#192);
#190 = CARTESIAN_POINT('',(2.5,8.881784197001E-16,4.6));
#191 = DIRECTION('',(0.,-1.,0.));
#192 = DIRECTION('',(-1.,0.,0.));
#193 = ORIENTED_EDGE('',*,*,#194,.T.);
#194 = EDGE_CURVE('',#186,#195,#197,.T.);
#195 = VERTEX_POINT('',#196);
#196 = CARTESIAN_POINT('',(5.35,8.881784197001E-16,1.117543970127));
#197 = B_SPLINE_CURVE_WITH_KNOTS('',7,(#198,#199,#200,#201,#202,#203,
#204,#205,#206,#207,#208,#209,#210,#211,#212,#213,#214,#215,#216,
#217,#218,#219,#220,#221,#222,#223,#224,#225,#226,#227,#228,#229,
#230,#231,#232,#233,#234,#235,#236,#237,#238,#239,#240,#241),
.UNSPECIFIED.,.F.,.F.,(8,6,6,6,6,6,6,8),(0.,0.189207584593,
0.367254743321,0.517866737764,0.648241354216,0.714728483418,
0.852917192627,1.),.UNSPECIFIED.);
#198 = CARTESIAN_POINT('',(4.65,1.33226762955E-15,0.646836709672));
#199 = CARTESIAN_POINT('',(4.65,-2.454616369301E-02,0.664222598716));
#200 = CARTESIAN_POINT('',(4.652008220966,-4.855670095574E-02,
0.682588332018));
#201 = CARTESIAN_POINT('',(4.655867859217,-7.202297578603E-02,
0.701846676156));
#202 = CARTESIAN_POINT('',(4.661491911529,-9.492024428979E-02,
0.721942142926));
#203 = CARTESIAN_POINT('',(4.66883083568,-0.117214426488,0.742835807364)
);
#204 = CARTESIAN_POINT('',(4.677864244562,-0.138863517667,0.76450181187)
);
#205 = CARTESIAN_POINT('',(4.698734792547,-0.179528016109,0.808046044614
));
#206 = CARTESIAN_POINT('',(4.71036749317,-0.198608923409,0.829820710873)
);
#207 = CARTESIAN_POINT('',(4.723535815752,-0.217021456989,0.852263216871
));
#208 = CARTESIAN_POINT('',(4.738285712426,-0.234700123748,0.875371814077
));
#209 = CARTESIAN_POINT('',(4.75469133967,-0.251546503999,0.899139959278)
);
#210 = CARTESIAN_POINT('',(4.772844742927,-0.26743509471,0.923552278172)
);
#211 = CARTESIAN_POINT('',(4.809932151067,-0.294649974923,0.969814215665
));
#212 = CARTESIAN_POINT('',(4.828260947038,-0.306262843177,0.991412140631
));
#213 = CARTESIAN_POINT('',(4.848080284401,-0.31695139652,1.013475131076)
);
#214 = CARTESIAN_POINT('',(4.869535082922,-0.326553406154,1.0359906146)
);
#215 = CARTESIAN_POINT('',(4.892771224651,-0.334793246894,1.058857931783
));
#216 = CARTESIAN_POINT('',(4.917875205412,-0.341340657436,1.081883867581
));
#217 = CARTESIAN_POINT('',(4.968600304646,-0.349402329707,1.124623949035
));
#218 = CARTESIAN_POINT('',(4.993862873875,-0.351500017156,1.144505111488
));
#219 = CARTESIAN_POINT('',(5.020700946854,-0.351514601517,1.163976852944
));
#220 = CARTESIAN_POINT('',(5.048771191458,-0.348964342417,1.182390626639
));
#221 = CARTESIAN_POINT('',(5.077542099353,-0.343483052694,1.199025338861
));
#222 = CARTESIAN_POINT('',(5.106259330198,-0.33481394293,1.21305958497)
);
#223 = CARTESIAN_POINT('',(5.147915249316,-0.317573472464,1.22960780567)
);
#224 = CARTESIAN_POINT('',(5.161683325061,-0.311038797951,1.234394575229
));
#225 = CARTESIAN_POINT('',(5.175058716971,-0.303831665434,1.238337768697
));
#226 = CARTESIAN_POINT('',(5.187959727023,-0.296007688457,1.241418422901
));
#227 = CARTESIAN_POINT('',(5.200315051081,-0.287638590298,1.243640041515
));
#228 = CARTESIAN_POINT('',(5.212063778898,-0.27881220397,1.245028595054)
);
#229 = CARTESIAN_POINT('',(5.246208517457,-0.25055306097,1.246887737213)
);
#230 = CARTESIAN_POINT('',(5.265416414219,-0.230782345224,1.244700582122
));
#231 = CARTESIAN_POINT('',(5.281453611098,-0.210930537996,1.240077967167
));
#232 = CARTESIAN_POINT('',(5.294787615195,-0.191355823339,1.233685807681
));
#233 = CARTESIAN_POINT('',(5.305922671291,-0.172203874932,1.226031548811
));
#234 = CARTESIAN_POINT('',(5.315263211417,-0.153378280677,1.217344116913
));
#235 = CARTESIAN_POINT('',(5.331445967999,-0.114519012427,1.19719650898)
);
#236 = CARTESIAN_POINT('',(5.337971066967,-9.476654448692E-02,
1.185739107047));
#237 = CARTESIAN_POINT('',(5.342952775412,-7.528497882423E-02,
1.173418780798));
#238 = CARTESIAN_POINT('',(5.34654510195,-5.607191913729E-02,
1.160358495515));
#239 = CARTESIAN_POINT('',(5.348867160442,-3.712379164937E-02,
1.146652983421));
#240 = CARTESIAN_POINT('',(5.35,-1.843567952165E-02,1.132366814182));
#241 = CARTESIAN_POINT('',(5.35,1.33226762955E-15,1.117543970127));
#242 = ORIENTED_EDGE('',*,*,#243,.T.);
#243 = EDGE_CURVE('',#195,#166,#244,.T.);
#244 = CIRCLE('',#245,4.5);
#245 = AXIS2_PLACEMENT_3D('',#246,#247,#248);
#246 = CARTESIAN_POINT('',(2.5,8.881784197001E-16,4.6));
#247 = DIRECTION('',(0.,-1.,0.));
#248 = DIRECTION('',(-1.,0.,0.));
#249 = ORIENTED_EDGE('',*,*,#165,.T.);
#250 = SPHERICAL_SURFACE('',#251,5.3);
#251 = AXIS2_PLACEMENT_3D('',#252,#253,#254);
#252 = CARTESIAN_POINT('',(2.5,2.8,4.6));
#253 = DIRECTION('',(0.,-1.,0.));
#254 = DIRECTION('',(-1.,0.,0.));
#255 = ADVANCED_FACE('',(#256),#332,.T.);
#256 = FACE_BOUND('',#257,.T.);
#257 = EDGE_LOOP('',(#258,#267,#268,#269,#306,#329,#330,#331));
#258 = ORIENTED_EDGE('',*,*,#259,.F.);
#259 = EDGE_CURVE('',#260,#166,#262,.T.);
#260 = VERTEX_POINT('',#261);
#261 = CARTESIAN_POINT('',(2.5,2.5,4.6));
#262 = CIRCLE('',#263,5.3);
#263 = AXIS2_PLACEMENT_3D('',#264,#265,#266);
#264 = CARTESIAN_POINT('',(2.5,-2.8,4.6));
#265 = DIRECTION('',(0.,0.,1.));
#266 = DIRECTION('',(-6.284281271463E-16,1.,0.));
#267 = ORIENTED_EDGE('',*,*,#259,.T.);
#268 = ORIENTED_EDGE('',*,*,#243,.F.);
#269 = ORIENTED_EDGE('',*,*,#270,.T.);
#270 = EDGE_CURVE('',#195,#271,#273,.T.);
#271 = VERTEX_POINT('',#272);
#272 = CARTESIAN_POINT('',(5.,0.35,1.147826771438));
#273 = B_SPLINE_CURVE_WITH_KNOTS('',7,(#274,#275,#276,#277,#278,#279,
#280,#281,#282,#283,#284,#285,#286,#287,#288,#289,#290,#291,#292,
#293,#294,#295,#296,#297,#298,#299,#300,#301,#302,#303,#304,#305),
.UNSPECIFIED.,.F.,.F.,(8,6,6,6,6,8),(0.,0.248153720898,0.414852248244,
0.539848397614,0.748172453822,1.),.UNSPECIFIED.);
#274 = CARTESIAN_POINT('',(5.35,4.440892098501E-16,1.117543970127));
#275 = CARTESIAN_POINT('',(5.35,1.457796083489E-02,1.129265091654));
#276 = CARTESIAN_POINT('',(5.349292171096,2.96338499298E-02,
1.140908371456));
#277 = CARTESIAN_POINT('',(5.347788930373,4.524977807524E-02,
1.152475832192));
#278 = CARTESIAN_POINT('',(5.345383245055,6.149669627692E-02,
1.163946721965));
#279 = CARTESIAN_POINT('',(5.341880727485,7.848452204573E-02,
1.175267778748));
#280 = CARTESIAN_POINT('',(5.337089322706,9.62970807106E-02,
1.186364852521));
#281 = CARTESIAN_POINT('',(5.326048712758,0.127960128422,1.204306890321)
);
#282 = CARTESIAN_POINT('',(5.320965164048,0.140708532986,1.211079892284)
);
#283 = CARTESIAN_POINT('',(5.315200658023,0.153445290424,1.217356751839)
);
#284 = CARTESIAN_POINT('',(5.30873119279,0.166122721084,1.223076248254)
);
#285 = CARTESIAN_POINT('',(5.301542580169,0.17868247331,1.228175502496)
);
#286 = CARTESIAN_POINT('',(5.293630445699,0.19105552344,1.232589977227)
);
#287 = CARTESIAN_POINT('',(5.278529002288,0.212240149995,1.239000491717)
);
#288 = CARTESIAN_POINT('',(5.271654279957,0.221171340527,1.241328114947)
);
#289 = CARTESIAN_POINT('',(5.264383685867,0.229916535562,1.243207780383)
);
#290 = CARTESIAN_POINT('',(5.256731344737,0.238438045003,1.244617401165)
);
#291 = CARTESIAN_POINT('',(5.248717881771,0.246699700503,1.245541369678)
);
#292 = CARTESIAN_POINT('',(5.240370422659,0.254666855461,1.245970557556)
);
#293 = CARTESIAN_POINT('',(5.217309742939,0.275038759538,1.245788580779)
);
#294 = CARTESIAN_POINT('',(5.202050656863,0.286873021032,1.244294371609)
);
#295 = CARTESIAN_POINT('',(5.186146271587,0.297623481352,1.241414563507)
);
#296 = CARTESIAN_POINT('',(5.169766561099,0.307221969301,1.237222927111)
);
#297 = CARTESIAN_POINT('',(5.153076174779,0.315644977945,1.231829586585)
);
#298 = CARTESIAN_POINT('',(5.13624511984,0.32288811599,1.225365908022));
#299 = CARTESIAN_POINT('',(5.099135447788,0.336361396601,1.209088869989)
);
#300 = CARTESIAN_POINT('',(5.08043436541,0.341497325231,1.199544375963)
);
#301 = CARTESIAN_POINT('',(5.06277697378,0.345214791514,1.189631401286)
);
#302 = CARTESIAN_POINT('',(5.046060759547,0.347715282893,1.179443985188)
);
#303 = CARTESIAN_POINT('',(5.030092524553,0.349273352834,1.169068571699)
);
#304 = CARTESIAN_POINT('',(5.014779030453,0.349999998611,1.158529470883)
);
#305 = CARTESIAN_POINT('',(5.,0.35,1.147826771438));
#306 = ORIENTED_EDGE('',*,*,#307,.T.);
#307 = EDGE_CURVE('',#271,#186,#308,.T.);
#308 = B_SPLINE_CURVE_WITH_KNOTS('',7,(#309,#310,#311,#312,#313,#314,
#315,#316,#317,#318,#319,#320,#321,#322,#323,#324,#325,#326,#327,
#328),.UNSPECIFIED.,.F.,.F.,(8,6,6,8),(0.,0.245188518853,
0.623775375151,1.),.UNSPECIFIED.);
#309 = CARTESIAN_POINT('',(5.,0.35,1.147826771438));
#310 = CARTESIAN_POINT('',(4.977781776933,0.349999997912,1.131736743663)
);
#311 = CARTESIAN_POINT('',(4.956282904457,0.348354683427,1.11492066181)
);
#312 = CARTESIAN_POINT('',(4.935524288258,0.345254794085,1.097562587614)
);
#313 = CARTESIAN_POINT('',(4.915527293379,0.340846112867,1.079805386817)
);
#314 = CARTESIAN_POINT('',(4.896303589031,0.335248542971,1.061759827654)
);
#315 = CARTESIAN_POINT('',(4.877851978117,0.328560846165,1.043507587869)
);
#316 = CARTESIAN_POINT('',(4.832848073011,0.308946614984,0.996672844414)
);
#317 = CARTESIAN_POINT('',(4.807390688475,0.2946234701,0.967915243946));
#318 = CARTESIAN_POINT('',(4.78376256727,0.278155420775,0.939031693914)
);
#319 = CARTESIAN_POINT('',(4.762010207518,0.259726461485,0.91019865118)
);
#320 = CARTESIAN_POINT('',(4.742191782038,0.239492149772,0.88156919938)
);
#321 = CARTESIAN_POINT('',(4.724384483361,0.217569383384,0.853272781547)
);
#322 = CARTESIAN_POINT('',(4.69311651019,0.170625076449,0.797739727102)
);
#323 = CARTESIAN_POINT('',(4.679652659089,0.145658705469,0.770538931147)
);
#324 = CARTESIAN_POINT('',(4.668408591413,0.119192248922,0.743917622944)
);
#325 = CARTESIAN_POINT('',(4.659555380362,9.129747891354E-02,
0.718022915859));
#326 = CARTESIAN_POINT('',(4.653327666476,6.206168424834E-02,
0.693046848395));
#327 = CARTESIAN_POINT('',(4.65,3.159687058314E-02,0.669216568821));
#328 = CARTESIAN_POINT('',(4.65,4.440892098501E-16,0.646836709672));
#329 = ORIENTED_EDGE('',*,*,#185,.F.);
#330 = ORIENTED_EDGE('',*,*,#72,.T.);
#331 = ORIENTED_EDGE('',*,*,#176,.F.);
#332 = SPHERICAL_SURFACE('',#333,5.3);
#333 = AXIS2_PLACEMENT_3D('',#334,#335,#336);
#334 = CARTESIAN_POINT('',(2.5,-2.8,4.6));
#335 = DIRECTION('',(0.,-1.,0.));
#336 = DIRECTION('',(-1.,0.,0.));
#337 = ADVANCED_FACE('',(#338),#359,.T.);
#338 = FACE_BOUND('',#339,.F.);
#339 = EDGE_LOOP('',(#340,#349,#355,#356,#357,#358));
#340 = ORIENTED_EDGE('',*,*,#341,.F.);
#341 = EDGE_CURVE('',#342,#342,#344,.T.);
#342 = VERTEX_POINT('',#343);
#343 = CARTESIAN_POINT('',(5.,0.35,-2.));
#344 = CIRCLE('',#345,0.35);
#345 = AXIS2_PLACEMENT_3D('',#346,#347,#348);
#346 = CARTESIAN_POINT('',(5.,0.,-2.));
#347 = DIRECTION('',(0.,-0.,1.));
#348 = DIRECTION('',(1.144237745222E-17,1.,0.));
#349 = ORIENTED_EDGE('',*,*,#350,.T.);
#350 = EDGE_CURVE('',#342,#271,#351,.T.);
#351 = LINE('',#352,#353);
#352 = CARTESIAN_POINT('',(5.,0.35,-2.));
#353 = VECTOR('',#354,1.);
#354 = DIRECTION('',(0.,0.,1.));
#355 = ORIENTED_EDGE('',*,*,#307,.T.);
#356 = ORIENTED_EDGE('',*,*,#194,.T.);
#357 = ORIENTED_EDGE('',*,*,#270,.T.);
#358 = ORIENTED_EDGE('',*,*,#350,.F.);
#359 = CYLINDRICAL_SURFACE('',#360,0.35);
#360 = AXIS2_PLACEMENT_3D('',#361,#362,#363);
#361 = CARTESIAN_POINT('',(5.,0.,-2.));
#362 = DIRECTION('',(0.,-0.,-1.));
#363 = DIRECTION('',(1.144237745222E-17,1.,0.));
#364 = ADVANCED_FACE('',(#365),#368,.T.);
#365 = FACE_BOUND('',#366,.F.);
#366 = EDGE_LOOP('',(#367));
#367 = ORIENTED_EDGE('',*,*,#341,.T.);
#368 = PLANE('',#369);
#369 = AXIS2_PLACEMENT_3D('',#370,#371,#372);
#370 = CARTESIAN_POINT('',(5.,0.35,-2.));
#371 = DIRECTION('',(-0.,0.,-1.));
#372 = DIRECTION('',(-1.144237745222E-17,-1.,0.));
#373 = ( GEOMETRIC_REPRESENTATION_CONTEXT(3)
GLOBAL_UNCERTAINTY_ASSIGNED_CONTEXT((#377)) GLOBAL_UNIT_ASSIGNED_CONTEXT
((#374,#375,#376)) REPRESENTATION_CONTEXT('Context #1',
'3D Context with UNIT and UNCERTAINTY') );
#374 = ( LENGTH_UNIT() NAMED_UNIT(*) SI_UNIT(.MILLI.,.METRE.) );
#375 = ( NAMED_UNIT(*) PLANE_ANGLE_UNIT() SI_UNIT($,.RADIAN.) );
#376 = ( NAMED_UNIT(*) SI_UNIT($,.STERADIAN.) SOLID_ANGLE_UNIT() );
#377 = UNCERTAINTY_MEASURE_WITH_UNIT(LENGTH_MEASURE(2.E-06),#374,
'distance_accuracy_value','confusion accuracy');
#378 = PRODUCT_TYPE('part',$,(#7));
#379 = MECHANICAL_DESIGN_GEOMETRIC_PRESENTATION_REPRESENTATION('',(#380,
#388,#395,#403,#410,#417),#373);
#380 = STYLED_ITEM('color',(#381),#17);
#381 = PRESENTATION_STYLE_ASSIGNMENT((#382));
#382 = SURFACE_STYLE_USAGE(.BOTH.,#383);
#383 = SURFACE_SIDE_STYLE('',(#384));
#384 = SURFACE_STYLE_FILL_AREA(#385);
#385 = FILL_AREA_STYLE('',(#386));
#386 = FILL_AREA_STYLE_COLOUR('',#387);
#387 = COLOUR_RGB('',0.824000000954,0.819999992847,0.78100001812);
#388 = STYLED_ITEM('color',(#389),#34);
#389 = PRESENTATION_STYLE_ASSIGNMENT((#390));
#390 = SURFACE_STYLE_USAGE(.BOTH.,#391);
#391 = SURFACE_SIDE_STYLE('',(#392));
#392 = SURFACE_STYLE_FILL_AREA(#393);
#393 = FILL_AREA_STYLE('',(#394));
#394 = FILL_AREA_STYLE_COLOUR('',#387);
#395 = STYLED_ITEM('color',(#396),#161);
#396 = PRESENTATION_STYLE_ASSIGNMENT((#397));
#397 = SURFACE_STYLE_USAGE(.BOTH.,#398);
#398 = SURFACE_SIDE_STYLE('',(#399));
#399 = SURFACE_STYLE_FILL_AREA(#400);
#400 = FILL_AREA_STYLE('',(#401));
#401 = FILL_AREA_STYLE_COLOUR('',#402);
#402 = COLOUR_RGB('',0.809000015259,0.425999999046,0.148000001907);
#403 = STYLED_ITEM('color',(#404),#255);
#404 = PRESENTATION_STYLE_ASSIGNMENT((#405));
#405 = SURFACE_STYLE_USAGE(.BOTH.,#406);
#406 = SURFACE_SIDE_STYLE('',(#407));
#407 = SURFACE_STYLE_FILL_AREA(#408);
#408 = FILL_AREA_STYLE('',(#409));
#409 = FILL_AREA_STYLE_COLOUR('',#402);
#410 = STYLED_ITEM('color',(#411),#337);
#411 = PRESENTATION_STYLE_ASSIGNMENT((#412));
#412 = SURFACE_STYLE_USAGE(.BOTH.,#413);
#413 = SURFACE_SIDE_STYLE('',(#414));
#414 = SURFACE_STYLE_FILL_AREA(#415);
#415 = FILL_AREA_STYLE('',(#416));
#416 = FILL_AREA_STYLE_COLOUR('',#387);
#417 = STYLED_ITEM('color',(#418),#364);
#418 = PRESENTATION_STYLE_ASSIGNMENT((#419));
#419 = SURFACE_STYLE_USAGE(.BOTH.,#420);
#420 = SURFACE_SIDE_STYLE('',(#421));
#421 = SURFACE_STYLE_FILL_AREA(#422);
#422 = FILL_AREA_STYLE('',(#423));
#423 = FILL_AREA_STYLE_COLOUR('',#387);
ENDSEC;
END-ISO-10303-21;
