ISO-10303-21;
HEADER;
/* C_Disc_D5.0mm_W2.5mm_P2.50mm.step 3D STEP model for use in ECAD systems
 * Copyright (C) 2017, kicad StepUp
 * 
 * This program is free software: you can redistribute it and/or modify
 * it under the terms of the GNU General Public License as published by
 * the Free Software Foundation, either version 3 of the License, or
 * any later version.
 * 
 * This program is distributed in the hope that it will be useful,
 * but WITHOUT ANY WARRANTY; without even the implied warranty of
 * MERCHANTABILITY or FITNESS FOR A PARTICULAR PURPOSE.  See the
 * GNU General Public License for more details.
 * 
 * You should have received a copy of the GNU General Public License
 * along with this program.  If not, see http://www.gnu.org/licenses/.
 * 
 * As a special exception, if you create a design which uses this symbol,
 * and embed this symbol or unaltered portions of this symbol into the design,
 * this symbol does not by itself cause the resulting design to be covered by
 * the GNU General Public License.
 * This exception does not however invalidate any other reasons why the design
 * itself might be covered by the GNU General Public License. 
 * If you modify this symbol, you may extend this exception to your version of the symbol,
 * but you are not obligated to do so.
 * If you do not wish to do so, delete this exception statement from your version
 * Risk disclaimer
 * *USE 3D CAD DATA AT YOUR OWN RISK*
 * *DO NOT RELY UPON ANY INFORMATION FOUND HERE WITHOUT INDEPENDENT VERIFICATION.*
 * 
 */

FILE_DESCRIPTION(
/* description */ ('model of C_Disc_D5.0mm_W2.5mm_P2.50mm'),
/* implementation_level */ '2;1');

FILE_NAME(
/* name */ 'C_Disc_D5.0mm_W2.5mm_P2.50mm.step',
/* time_stamp */ '2017-07-29T15:42:36',
/* author */ ('kicad StepUp','ksu'),
/* organization */ ('FreeCAD'),
/* preprocessor_version */ 'OCC',
/* originating_system */ 'kicad StepUp',
/* authorisation */ '');

FILE_SCHEMA(('AUTOMOTIVE_DESIGN_CC2 { 1 2 10303 214 -1 1 5 4 }'));
ENDSEC;

DATA;
#1 = APPLICATION_PROTOCOL_DEFINITION('committee draft',
'automotive_design',1997,#2);
#2 = APPLICATION_CONTEXT(
'core data for automotive mechanical design processes');
#3 = SHAPE_DEFINITION_REPRESENTATION(#4,#10);
#4 = PRODUCT_DEFINITION_SHAPE('','',#5);
#5 = PRODUCT_DEFINITION('design','',#6,#9);
#6 = PRODUCT_DEFINITION_FORMATION('','',#7);
#7 = PRODUCT('C_Disc_D50mm_W25mm_P250mm','C_Disc_D50mm_W25mm_P250mm','',
(#8));
#8 = MECHANICAL_CONTEXT('',#2,'mechanical');
#9 = PRODUCT_DEFINITION_CONTEXT('part definition',#2,'design');
#10 = ADVANCED_BREP_SHAPE_REPRESENTATION('',(#11,#15),#387);
#11 = AXIS2_PLACEMENT_3D('',#12,#13,#14);
#12 = CARTESIAN_POINT('',(0.,0.,0.));
#13 = DIRECTION('',(0.,0.,1.));
#14 = DIRECTION('',(1.,0.,-0.));
#15 = MANIFOLD_SOLID_BREP('',#16);
#16 = CLOSED_SHELL('',(#17,#34,#168,#269,#351,#378));
#17 = ADVANCED_FACE('',(#18),#29,.T.);
#18 = FACE_BOUND('',#19,.F.);
#19 = EDGE_LOOP('',(#20));
#20 = ORIENTED_EDGE('',*,*,#21,.T.);
#21 = EDGE_CURVE('',#22,#22,#24,.T.);
#22 = VERTEX_POINT('',#23);
#23 = CARTESIAN_POINT('',(1.110223024625E-16,-0.25,-2.));
#24 = CIRCLE('',#25,0.25);
#25 = AXIS2_PLACEMENT_3D('',#26,#27,#28);
#26 = CARTESIAN_POINT('',(8.326672684689E-17,0.,-2.));
#27 = DIRECTION('',(-0.,0.,1.));
#28 = DIRECTION('',(1.110223024625E-16,-1.,0.));
#29 = PLANE('',#30);
#30 = AXIS2_PLACEMENT_3D('',#31,#32,#33);
#31 = CARTESIAN_POINT('',(1.110223024625E-16,-0.25,-2.));
#32 = DIRECTION('',(0.,0.,-1.));
#33 = DIRECTION('',(-1.110223024625E-16,1.,0.));
#34 = ADVANCED_FACE('',(#35),#163,.T.);
#35 = FACE_BOUND('',#36,.F.);
#36 = EDGE_LOOP('',(#37,#38,#46,#71,#127,#162));
#37 = ORIENTED_EDGE('',*,*,#21,.F.);
#38 = ORIENTED_EDGE('',*,*,#39,.T.);
#39 = EDGE_CURVE('',#22,#40,#42,.T.);
#40 = VERTEX_POINT('',#41);
#41 = CARTESIAN_POINT('',(0.,-0.25,0.679713563033));
#42 = LINE('',#43,#44);
#43 = CARTESIAN_POINT('',(1.110223024625E-16,-0.25,-2.));
#44 = VECTOR('',#45,1.);
#45 = DIRECTION('',(0.,0.,1.));
#46 = ORIENTED_EDGE('',*,*,#47,.T.);
#47 = EDGE_CURVE('',#40,#48,#50,.T.);
#48 = VERTEX_POINT('',#49);
#49 = CARTESIAN_POINT('',(0.25,2.22044604925E-16,0.308712152522));
#50 = B_SPLINE_CURVE_WITH_KNOTS('',7,(#51,#52,#53,#54,#55,#56,#57,#58,
#59,#60,#61,#62,#63,#64,#65,#66,#67,#68,#69,#70),.UNSPECIFIED.,.F.,
.F.,(8,6,6,8),(0.,0.247494418505,0.625913593958,1.),.UNSPECIFIED.);
#51 = CARTESIAN_POINT('',(0.,-0.25,0.679713563033));
#52 = CARTESIAN_POINT('',(1.668230531916E-02,-0.249999998375,
0.668854305725));
#53 = CARTESIAN_POINT('',(3.268935444351E-02,-0.248701328528,
0.657238205434));
#54 = CARTESIAN_POINT('',(4.803522159591E-02,-0.246292795207,
0.645058427307));
#55 = CARTESIAN_POINT('',(6.272035044142E-02,-0.242904781035,
0.632454202666));
#56 = CARTESIAN_POINT('',(7.675482928969E-02,-0.238646669925,
0.619533115348));
#57 = CARTESIAN_POINT('',(9.015600539763E-02,-0.233600046125,
0.606367996904));
#58 = CARTESIAN_POINT('',(0.122509977475,-0.218979596467,0.572558438838)
);
#59 = CARTESIAN_POINT('',(0.140609828749,-0.208441049645,0.551682950477)
);
#60 = CARTESIAN_POINT('',(0.157316109399,-0.196421562524,0.530553330357)
);
#61 = CARTESIAN_POINT('',(0.1726182291,-0.183060607604,0.509312840633));
#62 = CARTESIAN_POINT('',(0.186496343419,-0.16847701509,0.488081826714)
);
#63 = CARTESIAN_POINT('',(0.198912256603,-0.152757672748,0.466955654528)
);
#64 = CARTESIAN_POINT('',(0.220566974034,-0.119340154572,0.425299865374)
);
#65 = CARTESIAN_POINT('',(0.22982513794,-0.101690391402,0.404795744165)
);
#66 = CARTESIAN_POINT('',(0.237519488802,-8.305904459744E-02,
0.384568703648));
#67 = CARTESIAN_POINT('',(0.243546001286,-6.35032798917E-02,
0.364715891401));
#68 = CARTESIAN_POINT('',(0.247762525952,-4.308939167411E-02,
0.345357068252));
#69 = CARTESIAN_POINT('',(0.25,-2.189707437231E-02,0.326630902667));
#70 = CARTESIAN_POINT('',(0.25,2.22044604925E-16,0.308712152522));
#71 = ORIENTED_EDGE('',*,*,#72,.T.);
#72 = EDGE_CURVE('',#48,#73,#75,.T.);
#73 = VERTEX_POINT('',#74);
#74 = CARTESIAN_POINT('',(-0.25,2.22044604925E-16,0.6));
#75 = B_SPLINE_CURVE_WITH_KNOTS('',8,(#76,#77,#78,#79,#80,#81,#82,#83,
#84,#85,#86,#87,#88,#89,#90,#91,#92,#93,#94,#95,#96,#97,#98,#99,#100
,#101,#102,#103,#104,#105,#106,#107,#108,#109,#110,#111,#112,#113,
#114,#115,#116,#117,#118,#119,#120,#121,#122,#123,#124,#125,#126),
.UNSPECIFIED.,.F.,.F.,(9,7,7,7,7,7,7,9),(0.,0.199458904293,
0.388869806011,0.551335379852,0.68813869272,0.752308818663,
0.873281746153,1.),.UNSPECIFIED.);
#76 = CARTESIAN_POINT('',(0.25,2.22044604925E-16,0.308712152522));
#77 = CARTESIAN_POINT('',(0.25,1.498658225286E-02,0.320975928876));
#78 = CARTESIAN_POINT('',(0.248973335591,2.970547488316E-02,
0.333655764178));
#79 = CARTESIAN_POINT('',(0.24698385099,4.415203712698E-02,
0.346721914111));
#80 = CARTESIAN_POINT('',(0.24407301906,5.831686687487E-02,
0.360152410527));
#81 = CARTESIAN_POINT('',(0.240267431482,7.218729021563E-02,
0.37393034107));
#82 = CARTESIAN_POINT('',(0.235582496024,8.574804863202E-02,
0.388042581303));
#83 = CARTESIAN_POINT('',(0.230022340923,9.898118384854E-02,
0.402479979305));
#84 = CARTESIAN_POINT('',(0.217454258367,0.124100011701,0.43125450167));
#85 = CARTESIAN_POINT('',(0.210536986697,0.136012964554,0.445551929575)
);
#86 = CARTESIAN_POINT('',(0.202814200622,0.147589731695,0.460131967275)
);
#87 = CARTESIAN_POINT('',(0.194266970857,0.15880635391,0.47499231283));
#88 = CARTESIAN_POINT('',(0.184865535006,0.169628344583,0.490127953843)
);
#89 = CARTESIAN_POINT('',(0.17457067718,0.180011499425,0.505530700778));
#90 = CARTESIAN_POINT('',(0.163327399037,0.189899786787,0.521190841153)
);
#91 = CARTESIAN_POINT('',(0.140500550844,0.207206481998,0.550752974867)
);
#92 = CARTESIAN_POINT('',(0.129228829023,0.214748695337,0.564541460993)
);
#93 = CARTESIAN_POINT('',(0.117141331693,0.22182391066,0.578506701658));
#94 = CARTESIAN_POINT('',(0.104149138269,0.228367849353,0.592649461129)
);
#95 = CARTESIAN_POINT('',(9.017343856703E-02,0.234285137733,
0.606935464109));
#96 = CARTESIAN_POINT('',(7.511462712787E-02,0.239426189606,
0.621290562358));
#97 = CARTESIAN_POINT('',(5.889216710565E-02,0.243619055255,
0.635602327222));
#98 = CARTESIAN_POINT('',(2.646785088722E-02,0.249048799009,
0.66160429439));
#99 = CARTESIAN_POINT('',(1.053825152492E-02,0.250669585469,
0.673455104837));
#100 = CARTESIAN_POINT('',(-6.495211866636E-03,0.251196244911,
0.685043508447));
#101 = CARTESIAN_POINT('',(-2.452795939285E-02,0.25035344694,
0.696027839295));
#102 = CARTESIAN_POINT('',(-4.334347825754E-02,0.247854159514,
0.705968391387));
#103 = CARTESIAN_POINT('',(-6.261131274603E-02,0.2434788272,
0.714396983691));
#104 = CARTESIAN_POINT('',(-8.185997201987E-02,0.237084220732,
0.720824079794));
#105 = CARTESIAN_POINT('',(-0.10910140322,0.225137936334,0.727038930339)
);
#106 = CARTESIAN_POINT('',(-0.117738358649,0.220900749238,0.728562265654
));
#107 = CARTESIAN_POINT('',(-0.126259813586,0.21624449077,0.729589797475)
);
#108 = CARTESIAN_POINT('',(-0.134614573334,0.211181583925,0.730098382962
));
#109 = CARTESIAN_POINT('',(-0.142754609382,0.205733166382,0.730076494893
));
#110 = CARTESIAN_POINT('',(-0.150635059404,0.199929090504,0.729524221666
));
#111 = CARTESIAN_POINT('',(-0.158214227257,0.193807923337,0.728453267298
));
#112 = CARTESIAN_POINT('',(-0.1791011494,0.175368736441,0.723934147238)
);
#113 = CARTESIAN_POINT('',(-0.190480624416,0.163302373898,0.71945490095)
);
#114 = CARTESIAN_POINT('',(-0.200238105405,0.151299134574,0.713971427554
));
#115 = CARTESIAN_POINT('',(-0.208612064754,0.139401939546,0.707696815747
));
#116 = CARTESIAN_POINT('',(-0.215848390386,0.127637946731,0.700829677282
));
#117 = CARTESIAN_POINT('',(-0.222086469131,0.116002948179,0.693465245757
));
#118 = CARTESIAN_POINT('',(-0.227458179431,0.104476464663,0.68567637468)
);
#119 = CARTESIAN_POINT('',(-0.236866967882,8.100264917104E-02,
0.668900233663));
#120 = CARTESIAN_POINT('',(-0.240809574106,6.91100893017E-02,
0.659908845036));
#121 = CARTESIAN_POINT('',(-0.24397912937,5.732790968674E-02,
0.650573551892));
#122 = CARTESIAN_POINT('',(-0.246441454366,4.565321186972E-02,
0.640940284062));
#123 = CARTESIAN_POINT('',(-0.248243288901,3.408451178674E-02,
0.631043013263));
#124 = CARTESIAN_POINT('',(-0.249420279743,2.262052324664E-02,
0.620908081359));
#125 = CARTESIAN_POINT('',(-0.25,1.12596233719E-02,0.610555896911));
#126 = CARTESIAN_POINT('',(-0.25,2.22044604925E-16,0.6));
#127 = ORIENTED_EDGE('',*,*,#128,.T.);
#128 = EDGE_CURVE('',#73,#40,#129,.T.);
#129 = B_SPLINE_CURVE_WITH_KNOTS('',7,(#130,#131,#132,#133,#134,#135,
#136,#137,#138,#139,#140,#141,#142,#143,#144,#145,#146,#147,#148,
#149,#150,#151,#152,#153,#154,#155,#156,#157,#158,#159,#160,#161),
.UNSPECIFIED.,.F.,.F.,(8,6,6,6,6,8),(0.,0.241317762374,0.445644466933,
0.571243661289,0.762892742629,1.),.UNSPECIFIED.);
#130 = CARTESIAN_POINT('',(-0.25,2.22044604925E-16,0.6));
#131 = CARTESIAN_POINT('',(-0.25,-9.684935723134E-03,0.60907962724));
#132 = CARTESIAN_POINT('',(-0.249562312585,-1.958663774209E-02,
0.618137008422));
#133 = CARTESIAN_POINT('',(-0.248651405776,-2.972573255191E-02,
0.627168846356));
#134 = CARTESIAN_POINT('',(-0.247221322709,-4.012175883314E-02,
0.636164218682));
#135 = CARTESIAN_POINT('',(-0.245209073056,-5.079675639546E-02,
0.645103357498));
#136 = CARTESIAN_POINT('',(-0.242537061214,-6.177469969022E-02,
0.653958268044));
#137 = CARTESIAN_POINT('',(-0.236139904846,-8.26955731734E-02,
0.670078636971));
#138 = CARTESIAN_POINT('',(-0.232704674347,-9.232384084319E-02,
0.677213594013));
#139 = CARTESIAN_POINT('',(-0.228740570249,-0.101972617487,
0.684056031744));
#140 = CARTESIAN_POINT('',(-0.224217714526,-0.111618403002,
0.690558940349));
#141 = CARTESIAN_POINT('',(-0.219106129615,-0.12122865342,0.696665536014
));
#142 = CARTESIAN_POINT('',(-0.213378796045,-0.130760638688,
0.702310163112));
#143 = CARTESIAN_POINT('',(-0.203102719819,-0.145938252703,
0.710559708371));
#144 = CARTESIAN_POINT('',(-0.198861795942,-0.151797430041,0.71356950591
));
#145 = CARTESIAN_POINT('',(-0.194252637482,-0.157741594401,
0.716425500374));
#146 = CARTESIAN_POINT('',(-0.189235443471,-0.163763565557,
0.719093103767));
#147 = CARTESIAN_POINT('',(-0.183769912908,-0.169845221121,
0.721526228727));
#148 = CARTESIAN_POINT('',(-0.177815244764,-0.175957496539,
0.723667288527));
#149 = CARTESIAN_POINT('',(-0.161434654467,-0.191372650112,
0.728163120848));
#150 = CARTESIAN_POINT('',(-0.150771379041,-0.200224266886,
0.729910895034));
#151 = CARTESIAN_POINT('',(-0.13943338396,-0.208451319365,0.730582732085
));
#152 = CARTESIAN_POINT('',(-0.127539684786,-0.215931925818,
0.730132246229));
#153 = CARTESIAN_POINT('',(-0.115231033896,-0.222580375236,
0.728568826534));
#154 = CARTESIAN_POINT('',(-0.102669342034,-0.228346795877,
0.725956595388));
#155 = CARTESIAN_POINT('',(-7.441667148544E-02,-0.239254373802,
0.718039961547));
#156 = CARTESIAN_POINT('',(-6.012989103581E-02,-0.243368610129,
0.71264902643));
#157 = CARTESIAN_POINT('',(-4.674363205343E-02,-0.246305062974,
0.706703296775));
#158 = CARTESIAN_POINT('',(-3.418334135388E-02,-0.248245212574,
0.700340083922));
#159 = CARTESIAN_POINT('',(-2.227742646536E-02,-0.249444115193,
0.69370291271));
#160 = CARTESIAN_POINT('',(-1.092751472784E-02,-0.249999998935,
0.686826768263));
#161 = CARTESIAN_POINT('',(0.,-0.25,0.679713563033));
#162 = ORIENTED_EDGE('',*,*,#39,.F.);
#163 = CYLINDRICAL_SURFACE('',#164,0.25);
#164 = AXIS2_PLACEMENT_3D('',#165,#166,#167);
#165 = CARTESIAN_POINT('',(8.326672684689E-17,0.,-2.));
#166 = DIRECTION('',(-0.,0.,-1.));
#167 = DIRECTION('',(1.110223024625E-16,-1.,0.));
#168 = ADVANCED_FACE('',(#169),#264,.T.);
#169 = FACE_BOUND('',#170,.T.);
#170 = EDGE_LOOP('',(#171,#182,#189,#190,#191,#200,#256,#263));
#171 = ORIENTED_EDGE('',*,*,#172,.F.);
#172 = EDGE_CURVE('',#173,#175,#177,.T.);
#173 = VERTEX_POINT('',#174);
#174 = CARTESIAN_POINT('',(-1.25,2.22044604925E-16,2.6));
#175 = VERTEX_POINT('',#176);
#176 = CARTESIAN_POINT('',(1.25,-1.25,2.6));
#177 = CIRCLE('',#178,3.125);
#178 = AXIS2_PLACEMENT_3D('',#179,#180,#181);
#179 = CARTESIAN_POINT('',(1.25,1.875,2.6));
#180 = DIRECTION('',(0.,0.,1.));
#181 = DIRECTION('',(-0.8,-0.6,0.));
#182 = ORIENTED_EDGE('',*,*,#183,.T.);
#183 = EDGE_CURVE('',#173,#73,#184,.T.);
#184 = CIRCLE('',#185,2.5);
#185 = AXIS2_PLACEMENT_3D('',#186,#187,#188);
#186 = CARTESIAN_POINT('',(1.25,2.22044604925E-16,2.6));
#187 = DIRECTION('',(0.,-1.,0.));
#188 = DIRECTION('',(-1.,0.,0.));
#189 = ORIENTED_EDGE('',*,*,#128,.T.);
#190 = ORIENTED_EDGE('',*,*,#47,.T.);
#191 = ORIENTED_EDGE('',*,*,#192,.T.);
#192 = EDGE_CURVE('',#48,#193,#195,.T.);
#193 = VERTEX_POINT('',#194);
#194 = CARTESIAN_POINT('',(2.25,2.22044604925E-16,0.308712152522));
#195 = CIRCLE('',#196,2.5);
#196 = AXIS2_PLACEMENT_3D('',#197,#198,#199);
#197 = CARTESIAN_POINT('',(1.25,2.22044604925E-16,2.6));
#198 = DIRECTION('',(0.,-1.,0.));
#199 = DIRECTION('',(-1.,0.,0.));
#200 = ORIENTED_EDGE('',*,*,#201,.T.);
#201 = EDGE_CURVE('',#193,#202,#204,.T.);
#202 = VERTEX_POINT('',#203);
#203 = CARTESIAN_POINT('',(2.75,2.22044604925E-16,0.6));
#204 = B_SPLINE_CURVE_WITH_KNOTS('',8,(#205,#206,#207,#208,#209,#210,
#211,#212,#213,#214,#215,#216,#217,#218,#219,#220,#221,#222,#223,
#224,#225,#226,#227,#228,#229,#230,#231,#232,#233,#234,#235,#236,
#237,#238,#239,#240,#241,#242,#243,#244,#245,#246,#247,#248,#249,
#250,#251,#252,#253,#254,#255),.UNSPECIFIED.,.F.,.F.,(9,7,7,7,7,7,7,
9),(0.,0.199458904289,0.388869805961,0.551335379777,0.68813869263,
0.75230881859,0.873281746118,1.),.UNSPECIFIED.);
#205 = CARTESIAN_POINT('',(2.25,2.498001805407E-16,0.308712152522));
#206 = CARTESIAN_POINT('',(2.25,-1.498658225447E-02,0.320975928877));
#207 = CARTESIAN_POINT('',(2.251026664409,-2.97054748863E-02,
0.33365576418));
#208 = CARTESIAN_POINT('',(2.253016149011,-4.41520371316E-02,
0.346721914115));
#209 = CARTESIAN_POINT('',(2.255926980942,-5.831686688093E-02,
0.360152410532));
#210 = CARTESIAN_POINT('',(2.25973256852,-7.218729022304E-02,
0.373930341078));
#211 = CARTESIAN_POINT('',(2.264417503979,-8.574804864071E-02,
0.388042581312));
#212 = CARTESIAN_POINT('',(2.269977659081,-9.898118385844E-02,
0.402479979316));
#213 = CARTESIAN_POINT('',(2.282545741639,-0.124100011711,0.431254501681
));
#214 = CARTESIAN_POINT('',(2.289463013308,-0.136012964562,0.445551929584
));
#215 = CARTESIAN_POINT('',(2.297185799383,-0.147589731702,0.460131967284
));
#216 = CARTESIAN_POINT('',(2.305733029147,-0.158806353915,0.474992312837
));
#217 = CARTESIAN_POINT('',(2.315134464997,-0.169628344586,0.490127953848
));
#218 = CARTESIAN_POINT('',(2.325429322822,-0.180011499427,0.505530700782
));
#219 = CARTESIAN_POINT('',(2.336672600964,-0.189899786788,0.521190841154
));
#220 = CARTESIAN_POINT('',(2.359499449155,-0.207206481998,0.550752974867
));
#221 = CARTESIAN_POINT('',(2.370771170976,-0.214748695336,0.564541460992
));
#222 = CARTESIAN_POINT('',(2.382858668306,-0.22182391066,0.578506701656)
);
#223 = CARTESIAN_POINT('',(2.395850861729,-0.228367849352,0.592649461127
));
#224 = CARTESIAN_POINT('',(2.409826561431,-0.234285137732,0.606935464107
));
#225 = CARTESIAN_POINT('',(2.424885372869,-0.239426189605,0.621290562355
));
#226 = CARTESIAN_POINT('',(2.44110783289,-0.243619055254,0.635602327218)
);
#227 = CARTESIAN_POINT('',(2.473532149108,-0.249048799008,0.661604294387
));
#228 = CARTESIAN_POINT('',(2.48946174847,-0.250669585469,0.673455104834)
);
#229 = CARTESIAN_POINT('',(2.506495211862,-0.251196244911,0.685043508444
));
#230 = CARTESIAN_POINT('',(2.524527959388,-0.25035344694,0.696027839293)
);
#231 = CARTESIAN_POINT('',(2.543343478254,-0.247854159514,0.705968391385
));
#232 = CARTESIAN_POINT('',(2.562611312742,-0.243478827201,0.71439698369)
);
#233 = CARTESIAN_POINT('',(2.581859972017,-0.237084220733,0.720824079793
));
#234 = CARTESIAN_POINT('',(2.60910140322,-0.225137936334,0.72703893034)
);
#235 = CARTESIAN_POINT('',(2.617738358649,-0.220900749239,0.728562265654
));
#236 = CARTESIAN_POINT('',(2.626259813584,-0.216244490771,0.729589797475
));
#237 = CARTESIAN_POINT('',(2.634614573331,-0.211181583927,0.730098382962
));
#238 = CARTESIAN_POINT('',(2.64275460938,-0.205733166384,0.730076494893)
);
#239 = CARTESIAN_POINT('',(2.650635059402,-0.199929090505,0.729524221666
));
#240 = CARTESIAN_POINT('',(2.658214227257,-0.193807923338,0.728453267298
));
#241 = CARTESIAN_POINT('',(2.6791011494,-0.175368736441,0.723934147238)
);
#242 = CARTESIAN_POINT('',(2.690480624416,-0.163302373898,0.71945490095)
);
#243 = CARTESIAN_POINT('',(2.700238105406,-0.151299134573,0.713971427554
));
#244 = CARTESIAN_POINT('',(2.708612064754,-0.139401939545,0.707696815746
));
#245 = CARTESIAN_POINT('',(2.715848390387,-0.12763794673,0.700829677281)
);
#246 = CARTESIAN_POINT('',(2.722086469132,-0.116002948178,0.693465245756
));
#247 = CARTESIAN_POINT('',(2.727458179432,-0.104476464661,0.685676374679
));
#248 = CARTESIAN_POINT('',(2.736866967883,-8.100264916926E-02,
0.668900233661));
#249 = CARTESIAN_POINT('',(2.740809574107,-6.91100893002E-02,
0.659908845035));
#250 = CARTESIAN_POINT('',(2.74397912937,-5.732790968549E-02,
0.650573551891));
#251 = CARTESIAN_POINT('',(2.746441454367,-4.565321186873E-02,
0.640940284061));
#252 = CARTESIAN_POINT('',(2.748243288901,-3.4084511786E-02,
0.631043013262));
#253 = CARTESIAN_POINT('',(2.749420279743,-2.262052324615E-02,
0.620908081359));
#254 = CARTESIAN_POINT('',(2.75,-1.125962337166E-02,0.610555896911));
#255 = CARTESIAN_POINT('',(2.75,2.498001805407E-16,0.6));
#256 = ORIENTED_EDGE('',*,*,#257,.T.);
#257 = EDGE_CURVE('',#202,#173,#258,.T.);
#258 = CIRCLE('',#259,2.5);
#259 = AXIS2_PLACEMENT_3D('',#260,#261,#262);
#260 = CARTESIAN_POINT('',(1.25,2.22044604925E-16,2.6));
#261 = DIRECTION('',(0.,-1.,0.));
#262 = DIRECTION('',(-1.,0.,0.));
#263 = ORIENTED_EDGE('',*,*,#172,.T.);
#264 = SPHERICAL_SURFACE('',#265,3.125);
#265 = AXIS2_PLACEMENT_3D('',#266,#267,#268);
#266 = CARTESIAN_POINT('',(1.25,1.875,2.6));
#267 = DIRECTION('',(0.,-1.,0.));
#268 = DIRECTION('',(-1.,0.,0.));
#269 = ADVANCED_FACE('',(#270),#346,.T.);
#270 = FACE_BOUND('',#271,.T.);
#271 = EDGE_LOOP('',(#272,#281,#282,#283,#320,#343,#344,#345));
#272 = ORIENTED_EDGE('',*,*,#273,.F.);
#273 = EDGE_CURVE('',#274,#173,#276,.T.);
#274 = VERTEX_POINT('',#275);
#275 = CARTESIAN_POINT('',(1.25,1.25,2.6));
#276 = CIRCLE('',#277,3.125);
#277 = AXIS2_PLACEMENT_3D('',#278,#279,#280);
#278 = CARTESIAN_POINT('',(1.25,-1.875,2.6));
#279 = DIRECTION('',(0.,0.,1.));
#280 = DIRECTION('',(-7.105427357601E-16,1.,0.));
#281 = ORIENTED_EDGE('',*,*,#273,.T.);
#282 = ORIENTED_EDGE('',*,*,#257,.F.);
#283 = ORIENTED_EDGE('',*,*,#284,.T.);
#284 = EDGE_CURVE('',#202,#285,#287,.T.);
#285 = VERTEX_POINT('',#286);
#286 = CARTESIAN_POINT('',(2.5,0.25,0.679713563033));
#287 = B_SPLINE_CURVE_WITH_KNOTS('',7,(#288,#289,#290,#291,#292,#293,
#294,#295,#296,#297,#298,#299,#300,#301,#302,#303,#304,#305,#306,
#307,#308,#309,#310,#311,#312,#313,#314,#315,#316,#317,#318,#319),
.UNSPECIFIED.,.F.,.F.,(8,6,6,6,6,8),(0.,0.241317762403,0.44564446692,
0.571243661275,0.762892742603,1.),.UNSPECIFIED.);
#288 = CARTESIAN_POINT('',(2.75,2.22044604925E-16,0.6));
#289 = CARTESIAN_POINT('',(2.75,9.684935722549E-03,0.60907962724));
#290 = CARTESIAN_POINT('',(2.749562312585,1.958663774088E-02,
0.618137008421));
#291 = CARTESIAN_POINT('',(2.748651405776,2.972573255005E-02,
0.627168846355));
#292 = CARTESIAN_POINT('',(2.74722132271,4.012175883062E-02,
0.63616421868));
#293 = CARTESIAN_POINT('',(2.745209073056,5.079675639222E-02,
0.645103357495));
#294 = CARTESIAN_POINT('',(2.742537061215,6.177469968621E-02,
0.65395826804));
#295 = CARTESIAN_POINT('',(2.736139904849,8.269557316476E-02,
0.670078636965));
#296 = CARTESIAN_POINT('',(2.732704674351,9.232384083339E-02,
0.677213594006));
#297 = CARTESIAN_POINT('',(2.728740570253,0.101972617478,0.684056031738)
);
#298 = CARTESIAN_POINT('',(2.72421771453,0.111618402993,0.690558940343)
);
#299 = CARTESIAN_POINT('',(2.71910612962,0.121228653412,0.696665536009)
);
#300 = CARTESIAN_POINT('',(2.71337879605,0.130760638679,0.702310163106)
);
#301 = CARTESIAN_POINT('',(2.703102719827,0.145938252692,0.710559708365)
);
#302 = CARTESIAN_POINT('',(2.698861795951,0.15179743003,0.713569505904)
);
#303 = CARTESIAN_POINT('',(2.694252637492,0.157741594389,0.716425500368)
);
#304 = CARTESIAN_POINT('',(2.689235443481,0.163763565545,0.719093103762)
);
#305 = CARTESIAN_POINT('',(2.683769912919,0.169845221109,0.721526228722)
);
#306 = CARTESIAN_POINT('',(2.677815244776,0.175957496526,0.723667288523)
);
#307 = CARTESIAN_POINT('',(2.661434654483,0.191372650099,0.728163120845)
);
#308 = CARTESIAN_POINT('',(2.650771379058,0.200224266874,0.729910895033)
);
#309 = CARTESIAN_POINT('',(2.639433383976,0.208451319354,0.730582732085)
);
#310 = CARTESIAN_POINT('',(2.627539684801,0.215931925809,0.730132246231)
);
#311 = CARTESIAN_POINT('',(2.615231033911,0.222580375228,0.728568826536)
);
#312 = CARTESIAN_POINT('',(2.602669342049,0.22834679587,0.725956595391)
);
#313 = CARTESIAN_POINT('',(2.574416671496,0.239254373799,0.718039961551)
);
#314 = CARTESIAN_POINT('',(2.560129891044,0.243368610128,0.712649026434)
);
#315 = CARTESIAN_POINT('',(2.54674363206,0.246305062973,0.706703296778)
);
#316 = CARTESIAN_POINT('',(2.534183341358,0.248245212574,0.700340083924)
);
#317 = CARTESIAN_POINT('',(2.522277426468,0.249444115193,0.693702912712)
);
#318 = CARTESIAN_POINT('',(2.510927514729,0.249999998935,0.686826768264)
);
#319 = CARTESIAN_POINT('',(2.5,0.25,0.679713563033));
#320 = ORIENTED_EDGE('',*,*,#321,.T.);
#321 = EDGE_CURVE('',#285,#193,#322,.T.);
#322 = B_SPLINE_CURVE_WITH_KNOTS('',7,(#323,#324,#325,#326,#327,#328,
#329,#330,#331,#332,#333,#334,#335,#336,#337,#338,#339,#340,#341,
#342),.UNSPECIFIED.,.F.,.F.,(8,6,6,8),(0.,0.247494418513,
0.625913593946,1.),.UNSPECIFIED.);
#323 = CARTESIAN_POINT('',(2.5,0.25,0.679713563033));
#324 = CARTESIAN_POINT('',(2.48331769468,0.249999998375,0.668854305725)
);
#325 = CARTESIAN_POINT('',(2.467310645556,0.248701328528,0.657238205433)
);
#326 = CARTESIAN_POINT('',(2.451964778403,0.246292795207,0.645058427306)
);
#327 = CARTESIAN_POINT('',(2.437279649557,0.242904781034,0.632454202665)
);
#328 = CARTESIAN_POINT('',(2.423245170708,0.238646669924,0.619533115346)
);
#329 = CARTESIAN_POINT('',(2.4098439946,0.233600046124,0.606367996902));
#330 = CARTESIAN_POINT('',(2.377490022523,0.218979596466,0.572558438836)
);
#331 = CARTESIAN_POINT('',(2.359390171251,0.208441049644,0.551682950476)
);
#332 = CARTESIAN_POINT('',(2.342683890601,0.196421562524,0.530553330357)
);
#333 = CARTESIAN_POINT('',(2.327381770901,0.183060607605,0.509312840635)
);
#334 = CARTESIAN_POINT('',(2.313503656583,0.168477015091,0.488081826717)
);
#335 = CARTESIAN_POINT('',(2.301087743399,0.152757672751,0.466955654532)
);
#336 = CARTESIAN_POINT('',(2.279433025968,0.119340154575,0.425299865378)
);
#337 = CARTESIAN_POINT('',(2.270174862061,0.101690391405,0.404795744168)
);
#338 = CARTESIAN_POINT('',(2.262480511199,8.305904459994E-02,
0.384568703651));
#339 = CARTESIAN_POINT('',(2.256453998714,6.35032798938E-02,
0.364715891403));
#340 = CARTESIAN_POINT('',(2.252237474048,4.308939167547E-02,
0.345357068254));
#341 = CARTESIAN_POINT('',(2.25,2.189707437304E-02,0.326630902667));
#342 = CARTESIAN_POINT('',(2.25,2.22044604925E-16,0.308712152522));
#343 = ORIENTED_EDGE('',*,*,#192,.F.);
#344 = ORIENTED_EDGE('',*,*,#72,.T.);
#345 = ORIENTED_EDGE('',*,*,#183,.F.);
#346 = SPHERICAL_SURFACE('',#347,3.125);
#347 = AXIS2_PLACEMENT_3D('',#348,#349,#350);
#348 = CARTESIAN_POINT('',(1.25,-1.875,2.6));
#349 = DIRECTION('',(0.,-1.,0.));
#350 = DIRECTION('',(-1.,0.,0.));
#351 = ADVANCED_FACE('',(#352),#373,.T.);
#352 = FACE_BOUND('',#353,.F.);
#353 = EDGE_LOOP('',(#354,#363,#369,#370,#371,#372));
#354 = ORIENTED_EDGE('',*,*,#355,.F.);
#355 = EDGE_CURVE('',#356,#356,#358,.T.);
#356 = VERTEX_POINT('',#357);
#357 = CARTESIAN_POINT('',(2.5,0.25,-2.));
#358 = CIRCLE('',#359,0.25);
#359 = AXIS2_PLACEMENT_3D('',#360,#361,#362);
#360 = CARTESIAN_POINT('',(2.5,0.,-2.));
#361 = DIRECTION('',(0.,-0.,1.));
#362 = DIRECTION('',(1.144237745222E-17,1.,0.));
#363 = ORIENTED_EDGE('',*,*,#364,.T.);
#364 = EDGE_CURVE('',#356,#285,#365,.T.);
#365 = LINE('',#366,#367);
#366 = CARTESIAN_POINT('',(2.5,0.25,-2.));
#367 = VECTOR('',#368,1.);
#368 = DIRECTION('',(0.,0.,1.));
#369 = ORIENTED_EDGE('',*,*,#321,.T.);
#370 = ORIENTED_EDGE('',*,*,#201,.T.);
#371 = ORIENTED_EDGE('',*,*,#284,.T.);
#372 = ORIENTED_EDGE('',*,*,#364,.F.);
#373 = CYLINDRICAL_SURFACE('',#374,0.25);
#374 = AXIS2_PLACEMENT_3D('',#375,#376,#377);
#375 = CARTESIAN_POINT('',(2.5,0.,-2.));
#376 = DIRECTION('',(0.,-0.,-1.));
#377 = DIRECTION('',(1.144237745222E-17,1.,0.));
#378 = ADVANCED_FACE('',(#379),#382,.T.);
#379 = FACE_BOUND('',#380,.F.);
#380 = EDGE_LOOP('',(#381));
#381 = ORIENTED_EDGE('',*,*,#355,.T.);
#382 = PLANE('',#383);
#383 = AXIS2_PLACEMENT_3D('',#384,#385,#386);
#384 = CARTESIAN_POINT('',(2.5,0.25,-2.));
#385 = DIRECTION('',(-0.,0.,-1.));
#386 = DIRECTION('',(-1.144237745222E-17,-1.,0.));
#387 = ( GEOMETRIC_REPRESENTATION_CONTEXT(3)
GLOBAL_UNCERTAINTY_ASSIGNED_CONTEXT((#391)) GLOBAL_UNIT_ASSIGNED_CONTEXT
((#388,#389,#390)) REPRESENTATION_CONTEXT('Context #1',
'3D Context with UNIT and UNCERTAINTY') );
#388 = ( LENGTH_UNIT() NAMED_UNIT(*) SI_UNIT(.MILLI.,.METRE.) );
#389 = ( NAMED_UNIT(*) PLANE_ANGLE_UNIT() SI_UNIT($,.RADIAN.) );
#390 = ( NAMED_UNIT(*) SI_UNIT($,.STERADIAN.) SOLID_ANGLE_UNIT() );
#391 = UNCERTAINTY_MEASURE_WITH_UNIT(LENGTH_MEASURE(5.E-07),#388,
'distance_accuracy_value','confusion accuracy');
#392 = PRODUCT_TYPE('part',$,(#7));
#393 = MECHANICAL_DESIGN_GEOMETRIC_PRESENTATION_REPRESENTATION('',(#394,
#402,#409,#417,#424,#431),#387);
#394 = STYLED_ITEM('color',(#395),#17);
#395 = PRESENTATION_STYLE_ASSIGNMENT((#396));
#396 = SURFACE_STYLE_USAGE(.BOTH.,#397);
#397 = SURFACE_SIDE_STYLE('',(#398));
#398 = SURFACE_STYLE_FILL_AREA(#399);
#399 = FILL_AREA_STYLE('',(#400));
#400 = FILL_AREA_STYLE_COLOUR('',#401);
#401 = COLOUR_RGB('',0.824000000954,0.819999992847,0.78100001812);
#402 = STYLED_ITEM('color',(#403),#34);
#403 = PRESENTATION_STYLE_ASSIGNMENT((#404));
#404 = SURFACE_STYLE_USAGE(.BOTH.,#405);
#405 = SURFACE_SIDE_STYLE('',(#406));
#406 = SURFACE_STYLE_FILL_AREA(#407);
#407 = FILL_AREA_STYLE('',(#408));
#408 = FILL_AREA_STYLE_COLOUR('',#401);
#409 = STYLED_ITEM('color',(#410),#168);
#410 = PRESENTATION_STYLE_ASSIGNMENT((#411));
#411 = SURFACE_STYLE_USAGE(.BOTH.,#412);
#412 = SURFACE_SIDE_STYLE('',(#413));
#413 = SURFACE_STYLE_FILL_AREA(#414);
#414 = FILL_AREA_STYLE('',(#415));
#415 = FILL_AREA_STYLE_COLOUR('',#416);
#416 = COLOUR_RGB('',0.809000015259,0.425999999046,0.148000001907);
#417 = STYLED_ITEM('color',(#418),#269);
#418 = PRESENTATION_STYLE_ASSIGNMENT((#419));
#419 = SURFACE_STYLE_USAGE(.BOTH.,#420);
#420 = SURFACE_SIDE_STYLE('',(#421));
#421 = SURFACE_STYLE_FILL_AREA(#422);
#422 = FILL_AREA_STYLE('',(#423));
#423 = FILL_AREA_STYLE_COLOUR('',#416);
#424 = STYLED_ITEM('color',(#425),#351);
#425 = PRESENTATION_STYLE_ASSIGNMENT((#426));
#426 = SURFACE_STYLE_USAGE(.BOTH.,#427);
#427 = SURFACE_SIDE_STYLE('',(#428));
#428 = SURFACE_STYLE_FILL_AREA(#429);
#429 = FILL_AREA_STYLE('',(#430));
#430 = FILL_AREA_STYLE_COLOUR('',#401);
#431 = STYLED_ITEM('color',(#432),#378);
#432 = PRESENTATION_STYLE_ASSIGNMENT((#433));
#433 = SURFACE_STYLE_USAGE(.BOTH.,#434);
#434 = SURFACE_SIDE_STYLE('',(#435));
#435 = SURFACE_STYLE_FILL_AREA(#436);
#436 = FILL_AREA_STYLE('',(#437));
#437 = FILL_AREA_STYLE_COLOUR('',#401);
ENDSEC;
END-ISO-10303-21;
