ISO-10303-21;
HEADER;
/* C_Disc_D8.0mm_W5.0mm_P5.00mm.step 3D STEP model for use in ECAD systems
 * Copyright (C) 2017, kicad StepUp
 * 
 * This program is free software: you can redistribute it and/or modify
 * it under the terms of the GNU General Public License as published by
 * the Free Software Foundation, either version 3 of the License, or
 * any later version.
 * 
 * This program is distributed in the hope that it will be useful,
 * but WITHOUT ANY WARRANTY; without even the implied warranty of
 * MERCHANTABILITY or FITNESS FOR A PARTICULAR PURPOSE.  See the
 * GNU General Public License for more details.
 * 
 * You should have received a copy of the GNU General Public License
 * along with this program.  If not, see http://www.gnu.org/licenses/.
 * 
 * As a special exception, if you create a design which uses this symbol,
 * and embed this symbol or unaltered portions of this symbol into the design,
 * this symbol does not by itself cause the resulting design to be covered by
 * the GNU General Public License.
 * This exception does not however invalidate any other reasons why the design
 * itself might be covered by the GNU General Public License. 
 * If you modify this symbol, you may extend this exception to your version of the symbol,
 * but you are not obligated to do so.
 * If you do not wish to do so, delete this exception statement from your version
 * Risk disclaimer
 * *USE 3D CAD DATA AT YOUR OWN RISK*
 * *DO NOT RELY UPON ANY INFORMATION FOUND HERE WITHOUT INDEPENDENT VERIFICATION.*
 * 
 */

FILE_DESCRIPTION(
/* description */ ('model of C_Disc_D8.0mm_W5.0mm_P5.00mm'),
/* implementation_level */ '2;1');

FILE_NAME(
/* name */ 'C_Disc_D8.0mm_W5.0mm_P5.00mm.step',
/* time_stamp */ '2017-07-29T11:29:16',
/* author */ ('kicad StepUp','ksu'),
/* organization */ ('FreeCAD'),
/* preprocessor_version */ 'OCC',
/* originating_system */ 'kicad StepUp',
/* authorisation */ '');

FILE_SCHEMA(('AUTOMOTIVE_DESIGN_CC2 { 1 2 10303 214 -1 1 5 4 }'));
ENDSEC;

DATA;
#1 = APPLICATION_PROTOCOL_DEFINITION('committee draft',
'automotive_design',1997,#2);
#2 = APPLICATION_CONTEXT(
'core data for automotive mechanical design processes');
#3 = SHAPE_DEFINITION_REPRESENTATION(#4,#10);
#4 = PRODUCT_DEFINITION_SHAPE('','',#5);
#5 = PRODUCT_DEFINITION('design','',#6,#9);
#6 = PRODUCT_DEFINITION_FORMATION('','',#7);
#7 = PRODUCT('ASSEMBLY','ASSEMBLY','',(#8));
#8 = MECHANICAL_CONTEXT('',#2,'mechanical');
#9 = PRODUCT_DEFINITION_CONTEXT('part definition',#2,'design');
#10 = SHAPE_REPRESENTATION('',(#11,#15),#19);
#11 = AXIS2_PLACEMENT_3D('',#12,#13,#14);
#12 = CARTESIAN_POINT('',(0.,0.,0.));
#13 = DIRECTION('',(0.,0.,1.));
#14 = DIRECTION('',(1.,0.,-0.));
#15 = AXIS2_PLACEMENT_3D('',#16,#17,#18);
#16 = CARTESIAN_POINT('',(2.5,0.,0.));
#17 = DIRECTION('',(0.,0.,1.));
#18 = DIRECTION('',(1.,0.,0.));
#19 = ( GEOMETRIC_REPRESENTATION_CONTEXT(3)
GLOBAL_UNCERTAINTY_ASSIGNED_CONTEXT((#23)) GLOBAL_UNIT_ASSIGNED_CONTEXT(
(#20,#21,#22)) REPRESENTATION_CONTEXT('Context #1',
'3D Context with UNIT and UNCERTAINTY') );
#20 = ( LENGTH_UNIT() NAMED_UNIT(*) SI_UNIT(.MILLI.,.METRE.) );
#21 = ( NAMED_UNIT(*) PLANE_ANGLE_UNIT() SI_UNIT($,.RADIAN.) );
#22 = ( NAMED_UNIT(*) SI_UNIT($,.STERADIAN.) SOLID_ANGLE_UNIT() );
#23 = UNCERTAINTY_MEASURE_WITH_UNIT(LENGTH_MEASURE(2.E-06),#20,
'distance_accuracy_value','confusion accuracy');
#24 = PRODUCT_TYPE('part',$,(#7));
#25 = ADVANCED_BREP_SHAPE_REPRESENTATION('',(#11,#26),#376);
#26 = MANIFOLD_SOLID_BREP('',#27);
#27 = CLOSED_SHELL('',(#28,#45,#168,#262,#340,#367));
#28 = ADVANCED_FACE('',(#29),#40,.T.);
#29 = FACE_BOUND('',#30,.F.);
#30 = EDGE_LOOP('',(#31));
#31 = ORIENTED_EDGE('',*,*,#32,.T.);
#32 = EDGE_CURVE('',#33,#33,#35,.T.);
#33 = VERTEX_POINT('',#34);
#34 = CARTESIAN_POINT('',(2.5,0.35,-2.));
#35 = CIRCLE('',#36,0.35);
#36 = AXIS2_PLACEMENT_3D('',#37,#38,#39);
#37 = CARTESIAN_POINT('',(2.5,0.,-2.));
#38 = DIRECTION('',(0.,-0.,1.));
#39 = DIRECTION('',(1.144237745222E-17,1.,0.));
#40 = PLANE('',#41);
#41 = AXIS2_PLACEMENT_3D('',#42,#43,#44);
#42 = CARTESIAN_POINT('',(2.5,0.35,-2.));
#43 = DIRECTION('',(-0.,0.,-1.));
#44 = DIRECTION('',(-1.144237745222E-17,-1.,0.));
#45 = ADVANCED_FACE('',(#46),#163,.T.);
#46 = FACE_BOUND('',#47,.F.);
#47 = EDGE_LOOP('',(#48,#49,#57,#78,#127,#162));
#48 = ORIENTED_EDGE('',*,*,#32,.F.);
#49 = ORIENTED_EDGE('',*,*,#50,.T.);
#50 = EDGE_CURVE('',#33,#51,#53,.T.);
#51 = VERTEX_POINT('',#52);
#52 = CARTESIAN_POINT('',(2.5,0.35,1.225543529639));
#53 = LINE('',#54,#55);
#54 = CARTESIAN_POINT('',(2.5,0.35,-2.));
#55 = VECTOR('',#56,1.);
#56 = DIRECTION('',(0.,0.,1.));
#57 = ORIENTED_EDGE('',*,*,#58,.T.);
#58 = EDGE_CURVE('',#51,#59,#61,.T.);
#59 = VERTEX_POINT('',#60);
#60 = CARTESIAN_POINT('',(2.15,9.992007221626E-16,0.726945004895));
#61 = B_SPLINE_CURVE_WITH_KNOTS('',8,(#62,#63,#64,#65,#66,#67,#68,#69,
#70,#71,#72,#73,#74,#75,#76,#77),.UNSPECIFIED.,.F.,.F.,(9,7,9),(0.,
0.496388092862,1.),.UNSPECIFIED.);
#62 = CARTESIAN_POINT('',(2.5,0.35,1.225543529639));
#63 = CARTESIAN_POINT('',(2.463362352427,0.349999996647,1.193678679526)
);
#64 = CARTESIAN_POINT('',(2.428253873102,0.345617226384,1.160574276174)
);
#65 = CARTESIAN_POINT('',(2.394737448194,0.337489415128,1.126772564832)
);
#66 = CARTESIAN_POINT('',(2.36298741356,0.325965299284,1.092681398613));
#67 = CARTESIAN_POINT('',(2.333136204685,0.311377153622,1.05863331701));
#68 = CARTESIAN_POINT('',(2.305319144609,0.293952913918,1.024874285667)
);
#69 = CARTESIAN_POINT('',(2.279646150593,0.273872911794,0.991586493275)
);
#70 = CARTESIAN_POINT('',(2.23252779203,0.228148962926,0.925699906897));
#71 = CARTESIAN_POINT('',(2.211262802615,0.202538328557,0.893276754809)
);
#72 = CARTESIAN_POINT('',(2.192569709169,0.174434370871,0.861721363051)
);
#73 = CARTESIAN_POINT('',(2.176713746837,0.143905613286,0.831248477607)
);
#74 = CARTESIAN_POINT('',(2.164021457431,0.111056909008,0.802129270755)
);
#75 = CARTESIAN_POINT('',(2.154954389061,7.600971424812E-02,
0.774730920013));
#76 = CARTESIAN_POINT('',(2.15,3.895374595004E-02,0.749464591654));
#77 = CARTESIAN_POINT('',(2.15,-1.33226762955E-15,0.726945004895));
#78 = ORIENTED_EDGE('',*,*,#79,.T.);
#79 = EDGE_CURVE('',#59,#80,#82,.T.);
#80 = VERTEX_POINT('',#81);
#81 = CARTESIAN_POINT('',(2.85,9.992007221626E-16,1.293311559863));
#82 = B_SPLINE_CURVE_WITH_KNOTS('',8,(#83,#84,#85,#86,#87,#88,#89,#90,
#91,#92,#93,#94,#95,#96,#97,#98,#99,#100,#101,#102,#103,#104,#105,
#106,#107,#108,#109,#110,#111,#112,#113,#114,#115,#116,#117,#118,
#119,#120,#121,#122,#123,#124,#125,#126),.UNSPECIFIED.,.F.,.F.,(9,7,
7,7,7,7,9),(0.,0.192650296711,0.367853106981,0.514103206613,
0.645983091742,0.806410054132,1.),.UNSPECIFIED.);
#83 = CARTESIAN_POINT('',(2.15,1.110223024625E-15,0.726945004895));
#84 = CARTESIAN_POINT('',(2.15,-2.272934689745E-02,0.740085089037));
#85 = CARTESIAN_POINT('',(2.151686760498,-4.499920056286E-02,
0.754268220279));
#86 = CARTESIAN_POINT('',(2.154941791539,-6.680072556296E-02,
0.769417674011));
#87 = CARTESIAN_POINT('',(2.159689160403,-8.81148743224E-02,
0.785482377004));
#88 = CARTESIAN_POINT('',(2.165879588657,-0.108915601692,0.802427121789)
);
#89 = CARTESIAN_POINT('',(2.173482228949,-0.129171412688,0.820227697718)
);
#90 = CARTESIAN_POINT('',(2.182484121514,-0.148845243396,0.83887093869)
);
#91 = CARTESIAN_POINT('',(2.20236746098,-0.185215064941,0.876083426521)
);
#92 = CARTESIAN_POINT('',(2.212998132757,-0.202006741584,0.894493711712)
);
#93 = CARTESIAN_POINT('',(2.224797228174,-0.218241368282,0.913595702108)
);
#94 = CARTESIAN_POINT('',(2.237786375315,-0.233873021168,0.933394609118)
);
#95 = CARTESIAN_POINT('',(2.25199396861,-0.248839890068,0.953892126606)
);
#96 = CARTESIAN_POINT('',(2.267455646837,-0.263064205431,0.975086635048)
);
#97 = CARTESIAN_POINT('',(2.284222228422,-0.276448391328,0.996977179825)
);
#98 = CARTESIAN_POINT('',(2.317528170732,-0.299234217522,1.038431544176)
);
#99 = CARTESIAN_POINT('',(2.333620185006,-0.30890980351,1.057748318565)
);
#100 = CARTESIAN_POINT('',(2.35071345616,-0.317838631104,1.077548132393)
);
#101 = CARTESIAN_POINT('',(2.368859364279,-0.325924574262,1.097824389481
));
#102 = CARTESIAN_POINT('',(2.388093858413,-0.333034932619,1.118534426529
));
#103 = CARTESIAN_POINT('',(2.40843151925,-0.339007532429,1.139596422877)
);
#104 = CARTESIAN_POINT('',(2.429865061452,-0.343653087014,1.160887259902
));
#105 = CARTESIAN_POINT('',(2.47267725159,-0.349533023956,1.201499391566)
);
#106 = CARTESIAN_POINT('',(2.493920381593,-0.351066650717,1.220871184991
));
#107 = CARTESIAN_POINT('',(2.515949275639,-0.351144307417,1.240091477677
));
#108 = CARTESIAN_POINT('',(2.538561056826,-0.349585716381,1.258857709415
));
#109 = CARTESIAN_POINT('',(2.561508672381,-0.346253945405,1.276844720452
));
#110 = CARTESIAN_POINT('',(2.584498773742,-0.341065193263,1.293708888739
));
#111 = CARTESIAN_POINT('',(2.607184730482,-0.334021161937,1.30910763751)
);
#112 = CARTESIAN_POINT('',(2.655877617357,-0.314688618935,1.339365638872
));
#113 = CARTESIAN_POINT('',(2.68138395411,-0.301657454237,1.353289572206)
);
#114 = CARTESIAN_POINT('',(2.705448856048,-0.286377095255,1.364386278886
));
#115 = CARTESIAN_POINT('',(2.727782400941,-0.269077993453,1.372500665372
));
#116 = CARTESIAN_POINT('',(2.748096171287,-0.250092561831,1.377564611472
));
#117 = CARTESIAN_POINT('',(2.766149780275,-0.229878805719,1.379665799642
));
#118 = CARTESIAN_POINT('',(2.781791220429,-0.209037806714,1.379098736138
));
#119 = CARTESIAN_POINT('',(2.810952801001,-0.163360228373,1.373162703575
));
#120 = CARTESIAN_POINT('',(2.82328183125,-0.138720212441,1.366842569715)
);
#121 = CARTESIAN_POINT('',(2.832845546862,-0.114481529639,1.358290695148
));
#122 = CARTESIAN_POINT('',(2.840016641522,-9.069255080964E-02,
1.347910724189));
#123 = CARTESIAN_POINT('',(2.845135997782,-6.737373893063E-02,
1.336052188995));
#124 = CARTESIAN_POINT('',(2.84840788363,-4.451489770913E-02,
1.322916804036));
#125 = CARTESIAN_POINT('',(2.85,-2.207926469757E-02,1.308651547567));
#126 = CARTESIAN_POINT('',(2.85,1.110223024625E-15,1.293311559863));
#127 = ORIENTED_EDGE('',*,*,#128,.T.);
#128 = EDGE_CURVE('',#80,#51,#129,.T.);
#129 = B_SPLINE_CURVE_WITH_KNOTS('',7,(#130,#131,#132,#133,#134,#135,
#136,#137,#138,#139,#140,#141,#142,#143,#144,#145,#146,#147,#148,
#149,#150,#151,#152,#153,#154,#155,#156,#157,#158,#159,#160,#161),
.UNSPECIFIED.,.F.,.F.,(8,6,6,6,6,8),(0.,0.264503545274,0.431539287457,
0.556789800406,0.76559076947,1.),.UNSPECIFIED.);
#130 = CARTESIAN_POINT('',(2.85,-1.33226762955E-15,1.293311559863));
#131 = CARTESIAN_POINT('',(2.85,1.505385964035E-02,1.303770514223));
#132 = CARTESIAN_POINT('',(2.849246620183,3.070099618041E-02,
1.31401609164));
#133 = CARTESIAN_POINT('',(2.847618485694,4.713103098971E-02,
1.324068437469));
#134 = CARTESIAN_POINT('',(2.844983046731,6.447115559681E-02,
1.333895687162));
#135 = CARTESIAN_POINT('',(2.840985484631,8.295782205893E-02,
1.343340155602));
#136 = CARTESIAN_POINT('',(2.835398950613,0.102651206321,1.352232289052)
);
#137 = CARTESIAN_POINT('',(2.822077153419,0.137759073734,1.365063344138)
);
#138 = CARTESIAN_POINT('',(2.816172934661,0.151341821745,1.36935390891)
);
#139 = CARTESIAN_POINT('',(2.809499210627,0.164829997823,1.372879762431)
);
#140 = CARTESIAN_POINT('',(2.802055548675,0.178132527641,1.375570851562)
);
#141 = CARTESIAN_POINT('',(2.793862832839,0.191155394069,1.377375834605)
);
#142 = CARTESIAN_POINT('',(2.78496326383,0.203801637166,1.378262081307)
);
#143 = CARTESIAN_POINT('',(2.768264682615,0.22509672628,1.37818087382));
#144 = CARTESIAN_POINT('',(2.760748871926,0.233953964004,1.377623116373)
);
#145 = CARTESIAN_POINT('',(2.752904899216,0.24250215928,1.376542632892)
);
#146 = CARTESIAN_POINT('',(2.744767375509,0.25070750835,1.37494766376));
#147 = CARTESIAN_POINT('',(2.736373550605,0.258543311771,1.37285445736)
);
#148 = CARTESIAN_POINT('',(2.727763313074,0.265989974424,1.370287270082)
);
#149 = CARTESIAN_POINT('',(2.704335470947,0.284779542776,1.362262322806)
);
#150 = CARTESIAN_POINT('',(2.68919395844,0.295417004901,1.356011635887)
);
#151 = CARTESIAN_POINT('',(2.673743258788,0.304887637652,1.348665748757)
);
#152 = CARTESIAN_POINT('',(2.658114607557,0.31321989503,1.340376237383)
);
#153 = CARTESIAN_POINT('',(2.642410547776,0.320464992751,1.331283912456)
);
#154 = CARTESIAN_POINT('',(2.626716449162,0.326671573266,1.321510178202)
);
#155 = CARTESIAN_POINT('',(2.593557389319,0.337770687589,1.299546051598)
);
#156 = CARTESIAN_POINT('',(2.576737960269,0.342198501207,1.287621047976)
);
#157 = CARTESIAN_POINT('',(2.560485611935,0.345499365421,1.275478249533)
);
#158 = CARTESIAN_POINT('',(2.544737840015,0.347822893252,1.263169247779)
);
#159 = CARTESIAN_POINT('',(2.529436156949,0.349295691816,1.250732120935)
);
#160 = CARTESIAN_POINT('',(2.514537745956,0.34999999867,1.23818743746));
#161 = CARTESIAN_POINT('',(2.5,0.35,1.225543529639));
#162 = ORIENTED_EDGE('',*,*,#50,.F.);
#163 = CYLINDRICAL_SURFACE('',#164,0.35);
#164 = AXIS2_PLACEMENT_3D('',#165,#166,#167);
#165 = CARTESIAN_POINT('',(2.5,0.,-2.));
#166 = DIRECTION('',(0.,-0.,-1.));
#167 = DIRECTION('',(1.144237745222E-17,1.,0.));
#168 = ADVANCED_FACE('',(#169),#257,.T.);
#169 = FACE_BOUND('',#170,.T.);
#170 = EDGE_LOOP('',(#171,#182,#183,#190,#191,#192,#201,#250));
#171 = ORIENTED_EDGE('',*,*,#172,.F.);
#172 = EDGE_CURVE('',#173,#175,#177,.T.);
#173 = VERTEX_POINT('',#174);
#174 = CARTESIAN_POINT('',(0.,2.5,4.1));
#175 = VERTEX_POINT('',#176);
#176 = CARTESIAN_POINT('',(-4.,9.992007221626E-16,4.1));
#177 = CIRCLE('',#178,4.45);
#178 = AXIS2_PLACEMENT_3D('',#179,#180,#181);
#179 = CARTESIAN_POINT('',(-9.436895709314E-16,-1.95,4.1));
#180 = DIRECTION('',(0.,-0.,1.));
#181 = DIRECTION('',(2.120650721194E-16,1.,0.));
#182 = ORIENTED_EDGE('',*,*,#172,.T.);
#183 = ORIENTED_EDGE('',*,*,#184,.F.);
#184 = EDGE_CURVE('',#80,#175,#185,.T.);
#185 = CIRCLE('',#186,4.);
#186 = AXIS2_PLACEMENT_3D('',#187,#188,#189);
#187 = CARTESIAN_POINT('',(0.,9.992007221626E-16,4.1));
#188 = DIRECTION('',(0.,-1.,0.));
#189 = DIRECTION('',(-1.,0.,0.));
#190 = ORIENTED_EDGE('',*,*,#128,.T.);
#191 = ORIENTED_EDGE('',*,*,#58,.T.);
#192 = ORIENTED_EDGE('',*,*,#193,.F.);
#193 = EDGE_CURVE('',#194,#59,#196,.T.);
#194 = VERTEX_POINT('',#195);
#195 = CARTESIAN_POINT('',(-2.15,9.992007221626E-16,0.726945004895));
#196 = CIRCLE('',#197,4.);
#197 = AXIS2_PLACEMENT_3D('',#198,#199,#200);
#198 = CARTESIAN_POINT('',(0.,9.992007221626E-16,4.1));
#199 = DIRECTION('',(0.,-1.,0.));
#200 = DIRECTION('',(-1.,0.,0.));
#201 = ORIENTED_EDGE('',*,*,#202,.T.);
#202 = EDGE_CURVE('',#194,#203,#205,.T.);
#203 = VERTEX_POINT('',#204);
#204 = CARTESIAN_POINT('',(-2.85,9.992007221626E-16,1.293311559863));
#205 = B_SPLINE_CURVE_WITH_KNOTS('',8,(#206,#207,#208,#209,#210,#211,
#212,#213,#214,#215,#216,#217,#218,#219,#220,#221,#222,#223,#224,
#225,#226,#227,#228,#229,#230,#231,#232,#233,#234,#235,#236,#237,
#238,#239,#240,#241,#242,#243,#244,#245,#246,#247,#248,#249),
.UNSPECIFIED.,.F.,.F.,(9,7,7,7,7,7,9),(0.,0.192650296713,
0.367853106986,0.514103206614,0.645983091752,0.806410054149,1.),
.UNSPECIFIED.);
#206 = CARTESIAN_POINT('',(-2.15,-1.33226762955E-15,0.726945004895));
#207 = CARTESIAN_POINT('',(-2.15,2.272934689761E-02,0.740085089037));
#208 = CARTESIAN_POINT('',(-2.151686760498,4.499920056316E-02,
0.754268220279));
#209 = CARTESIAN_POINT('',(-2.154941791539,6.68007255634E-02,
0.769417674012));
#210 = CARTESIAN_POINT('',(-2.159689160403,8.811487432298E-02,
0.785482377004));
#211 = CARTESIAN_POINT('',(-2.165879588657,0.108915601693,0.802427121789
));
#212 = CARTESIAN_POINT('',(-2.173482228949,0.129171412689,0.820227697719
));
#213 = CARTESIAN_POINT('',(-2.182484121515,0.148845243397,0.838870938691
));
#214 = CARTESIAN_POINT('',(-2.202367460981,0.185215064943,0.876083426523
));
#215 = CARTESIAN_POINT('',(-2.212998132758,0.202006741586,0.894493711714
));
#216 = CARTESIAN_POINT('',(-2.224797228176,0.218241368285,0.913595702111
));
#217 = CARTESIAN_POINT('',(-2.237786375317,0.233873021171,0.933394609121
));
#218 = CARTESIAN_POINT('',(-2.251993968613,0.248839890071,0.95389212661)
);
#219 = CARTESIAN_POINT('',(-2.267455646841,0.263064205434,0.975086635053
));
#220 = CARTESIAN_POINT('',(-2.284222228426,0.276448391332,0.99697717983)
);
#221 = CARTESIAN_POINT('',(-2.317528170737,0.299234217525,1.038431544182
));
#222 = CARTESIAN_POINT('',(-2.333620185011,0.308909803513,1.05774831857)
);
#223 = CARTESIAN_POINT('',(-2.350713456164,0.317838631106,1.077548132398
));
#224 = CARTESIAN_POINT('',(-2.368859364283,0.325924574264,1.097824389486
));
#225 = CARTESIAN_POINT('',(-2.388093858416,0.33303493262,1.118534426532)
);
#226 = CARTESIAN_POINT('',(-2.408431519252,0.33900753243,1.139596422879)
);
#227 = CARTESIAN_POINT('',(-2.429865061454,0.343653087014,1.160887259904
));
#228 = CARTESIAN_POINT('',(-2.472677251593,0.349533023956,1.201499391569
));
#229 = CARTESIAN_POINT('',(-2.493920381598,0.351066650717,1.220871184995
));
#230 = CARTESIAN_POINT('',(-2.515949275645,0.351144307417,1.240091477682
));
#231 = CARTESIAN_POINT('',(-2.538561056834,0.349585716381,1.258857709422
));
#232 = CARTESIAN_POINT('',(-2.561508672391,0.346253945403,1.276844720459
));
#233 = CARTESIAN_POINT('',(-2.584498773753,0.341065193261,1.293708888747
));
#234 = CARTESIAN_POINT('',(-2.607184730494,0.334021161933,1.309107637518
));
#235 = CARTESIAN_POINT('',(-2.655877617372,0.314688618928,1.33936563888)
);
#236 = CARTESIAN_POINT('',(-2.681383954125,0.301657454228,1.353289572213
));
#237 = CARTESIAN_POINT('',(-2.705448856063,0.286377095245,1.364386278892
));
#238 = CARTESIAN_POINT('',(-2.727782400956,0.26907799344,1.372500665377)
);
#239 = CARTESIAN_POINT('',(-2.748096171301,0.250092561816,1.377564611475
));
#240 = CARTESIAN_POINT('',(-2.766149780289,0.229878805703,1.379665799643
));
#241 = CARTESIAN_POINT('',(-2.781791220441,0.209037806697,1.379098736138
));
#242 = CARTESIAN_POINT('',(-2.810952801009,0.163360228357,1.373162703571
));
#243 = CARTESIAN_POINT('',(-2.823281831255,0.138720212429,1.36684256971)
);
#244 = CARTESIAN_POINT('',(-2.832845546865,0.114481529629,1.358290695143
));
#245 = CARTESIAN_POINT('',(-2.840016641524,9.069255080145E-02,
1.347910724185));
#246 = CARTESIAN_POINT('',(-2.845135997783,6.737373892442E-02,
1.336052188991));
#247 = CARTESIAN_POINT('',(-2.84840788363,4.451489770514E-02,
1.322916804033));
#248 = CARTESIAN_POINT('',(-2.85,2.207926469557E-02,1.308651547565));
#249 = CARTESIAN_POINT('',(-2.85,-1.33226762955E-15,1.293311559863));
#250 = ORIENTED_EDGE('',*,*,#251,.F.);
#251 = EDGE_CURVE('',#175,#203,#252,.T.);
#252 = CIRCLE('',#253,4.);
#253 = AXIS2_PLACEMENT_3D('',#254,#255,#256);
#254 = CARTESIAN_POINT('',(0.,9.992007221626E-16,4.1));
#255 = DIRECTION('',(0.,-1.,0.));
#256 = DIRECTION('',(-1.,0.,0.));
#257 = SPHERICAL_SURFACE('',#258,4.45);
#258 = AXIS2_PLACEMENT_3D('',#259,#260,#261);
#259 = CARTESIAN_POINT('',(-9.436895709314E-16,-1.95,4.1));
#260 = DIRECTION('',(0.,-1.,0.));
#261 = DIRECTION('',(-1.,0.,0.));
#262 = ADVANCED_FACE('',(#263),#335,.T.);
#263 = FACE_BOUND('',#264,.T.);
#264 = EDGE_LOOP('',(#265,#274,#275,#312,#331,#332,#333,#334));
#265 = ORIENTED_EDGE('',*,*,#266,.F.);
#266 = EDGE_CURVE('',#175,#267,#269,.T.);
#267 = VERTEX_POINT('',#268);
#268 = CARTESIAN_POINT('',(-6.661338147751E-16,-2.5,4.1));
#269 = CIRCLE('',#270,4.45);
#270 = AXIS2_PLACEMENT_3D('',#271,#272,#273);
#271 = CARTESIAN_POINT('',(-8.881784197001E-16,1.95,4.1));
#272 = DIRECTION('',(0.,0.,1.));
#273 = DIRECTION('',(-0.898876404494,-0.438202247191,0.));
#274 = ORIENTED_EDGE('',*,*,#251,.T.);
#275 = ORIENTED_EDGE('',*,*,#276,.T.);
#276 = EDGE_CURVE('',#203,#277,#279,.T.);
#277 = VERTEX_POINT('',#278);
#278 = CARTESIAN_POINT('',(-2.5,-0.35,1.225543529639));
#279 = B_SPLINE_CURVE_WITH_KNOTS('',7,(#280,#281,#282,#283,#284,#285,
#286,#287,#288,#289,#290,#291,#292,#293,#294,#295,#296,#297,#298,
#299,#300,#301,#302,#303,#304,#305,#306,#307,#308,#309,#310,#311),
.UNSPECIFIED.,.F.,.F.,(8,6,6,6,6,8),(0.,0.264503545183,0.43153928736,
0.556789800282,0.765590769369,1.),.UNSPECIFIED.);
#280 = CARTESIAN_POINT('',(-2.85,1.110223024625E-15,1.293311559863));
#281 = CARTESIAN_POINT('',(-2.85,-1.505385963984E-02,1.303770514223));
#282 = CARTESIAN_POINT('',(-2.849246620183,-3.070099617936E-02,
1.314016091639));
#283 = CARTESIAN_POINT('',(-2.847618485695,-4.71310309881E-02,
1.324068437468));
#284 = CARTESIAN_POINT('',(-2.844983046732,-6.447115559448E-02,
1.33389568716));
#285 = CARTESIAN_POINT('',(-2.840985484632,-8.295782205587E-02,
1.343340155601));
#286 = CARTESIAN_POINT('',(-2.835398950614,-0.102651206317,1.35223228905
));
#287 = CARTESIAN_POINT('',(-2.82207715342,-0.137759073732,1.365063344138
));
#288 = CARTESIAN_POINT('',(-2.816172934662,-0.151341821743,1.36935390891
));
#289 = CARTESIAN_POINT('',(-2.809499210629,-0.16482999782,1.37287976243)
);
#290 = CARTESIAN_POINT('',(-2.802055548677,-0.178132527637,
1.375570851561));
#291 = CARTESIAN_POINT('',(-2.793862832842,-0.191155394065,
1.377375834604));
#292 = CARTESIAN_POINT('',(-2.784963263832,-0.203801637163,
1.378262081306));
#293 = CARTESIAN_POINT('',(-2.768264682619,-0.225096726275,1.37818087382
));
#294 = CARTESIAN_POINT('',(-2.760748871932,-0.233953963998,
1.377623116374));
#295 = CARTESIAN_POINT('',(-2.752904899222,-0.242502159274,
1.376542632893));
#296 = CARTESIAN_POINT('',(-2.744767375515,-0.250707508345,
1.374947663761));
#297 = CARTESIAN_POINT('',(-2.736373550608,-0.258543311768,
1.372854457361));
#298 = CARTESIAN_POINT('',(-2.727763313077,-0.265989974421,
1.370287270082));
#299 = CARTESIAN_POINT('',(-2.704335470952,-0.284779542773,
1.362262322808));
#300 = CARTESIAN_POINT('',(-2.689193958442,-0.2954170049,1.356011635888)
);
#301 = CARTESIAN_POINT('',(-2.673743258788,-0.304887637653,
1.348665748757));
#302 = CARTESIAN_POINT('',(-2.658114607556,-0.313219895031,
1.340376237382));
#303 = CARTESIAN_POINT('',(-2.642410547775,-0.320464992751,
1.331283912455));
#304 = CARTESIAN_POINT('',(-2.626716449164,-0.326671573265,
1.321510178203));
#305 = CARTESIAN_POINT('',(-2.593557389323,-0.337770687587,
1.299546051601));
#306 = CARTESIAN_POINT('',(-2.576737960273,-0.342198501207,
1.287621047979));
#307 = CARTESIAN_POINT('',(-2.560485611938,-0.345499365421,
1.275478249536));
#308 = CARTESIAN_POINT('',(-2.544737840017,-0.347822893252,
1.263169247781));
#309 = CARTESIAN_POINT('',(-2.529436156951,-0.349295691816,
1.250732120936));
#310 = CARTESIAN_POINT('',(-2.514537745956,-0.34999999867,1.238187437461
));
#311 = CARTESIAN_POINT('',(-2.5,-0.35,1.225543529639));
#312 = ORIENTED_EDGE('',*,*,#313,.T.);
#313 = EDGE_CURVE('',#277,#194,#314,.T.);
#314 = B_SPLINE_CURVE_WITH_KNOTS('',8,(#315,#316,#317,#318,#319,#320,
#321,#322,#323,#324,#325,#326,#327,#328,#329,#330),.UNSPECIFIED.,.F.
,.F.,(9,7,9),(0.,0.496388092883,1.),.UNSPECIFIED.);
#315 = CARTESIAN_POINT('',(-2.5,-0.35,1.225543529639));
#316 = CARTESIAN_POINT('',(-2.463362352425,-0.349999996647,
1.193678679525));
#317 = CARTESIAN_POINT('',(-2.428253873099,-0.345617226384,
1.160574276172));
#318 = CARTESIAN_POINT('',(-2.39473744819,-0.337489415127,1.126772564827
));
#319 = CARTESIAN_POINT('',(-2.362987413555,-0.325965299282,
1.092681398607));
#320 = CARTESIAN_POINT('',(-2.333136204679,-0.311377153618,
1.058633317003));
#321 = CARTESIAN_POINT('',(-2.305319144601,-0.293952913913,
1.024874285658));
#322 = CARTESIAN_POINT('',(-2.279646150585,-0.273872911788,
0.991586493264));
#323 = CARTESIAN_POINT('',(-2.232527792024,-0.228148962919,
0.925699906887));
#324 = CARTESIAN_POINT('',(-2.21126280261,-0.20253832855,0.893276754801)
);
#325 = CARTESIAN_POINT('',(-2.192569709165,-0.174434370864,
0.861721363045));
#326 = CARTESIAN_POINT('',(-2.176713746835,-0.14390561328,0.831248477602
));
#327 = CARTESIAN_POINT('',(-2.16402145743,-0.111056909003,0.802129270751
));
#328 = CARTESIAN_POINT('',(-2.15495438906,-7.600971424488E-02,
0.774730920011));
#329 = CARTESIAN_POINT('',(-2.15,-3.895374594837E-02,0.749464591653));
#330 = CARTESIAN_POINT('',(-2.15,1.110223024625E-15,0.726945004895));
#331 = ORIENTED_EDGE('',*,*,#193,.T.);
#332 = ORIENTED_EDGE('',*,*,#79,.T.);
#333 = ORIENTED_EDGE('',*,*,#184,.T.);
#334 = ORIENTED_EDGE('',*,*,#266,.T.);
#335 = SPHERICAL_SURFACE('',#336,4.45);
#336 = AXIS2_PLACEMENT_3D('',#337,#338,#339);
#337 = CARTESIAN_POINT('',(-8.881784197001E-16,1.95,4.1));
#338 = DIRECTION('',(0.,-1.,0.));
#339 = DIRECTION('',(-1.,0.,0.));
#340 = ADVANCED_FACE('',(#341),#362,.T.);
#341 = FACE_BOUND('',#342,.F.);
#342 = EDGE_LOOP('',(#343,#352,#358,#359,#360,#361));
#343 = ORIENTED_EDGE('',*,*,#344,.F.);
#344 = EDGE_CURVE('',#345,#345,#347,.T.);
#345 = VERTEX_POINT('',#346);
#346 = CARTESIAN_POINT('',(-2.5,-0.35,-2.));
#347 = CIRCLE('',#348,0.35);
#348 = AXIS2_PLACEMENT_3D('',#349,#350,#351);
#349 = CARTESIAN_POINT('',(-2.5,0.,-2.));
#350 = DIRECTION('',(-0.,0.,1.));
#351 = DIRECTION('',(1.110223024625E-16,-1.,0.));
#352 = ORIENTED_EDGE('',*,*,#353,.T.);
#353 = EDGE_CURVE('',#345,#277,#354,.T.);
#354 = LINE('',#355,#356);
#355 = CARTESIAN_POINT('',(-2.5,-0.35,-2.));
#356 = VECTOR('',#357,1.);
#357 = DIRECTION('',(0.,0.,1.));
#358 = ORIENTED_EDGE('',*,*,#313,.T.);
#359 = ORIENTED_EDGE('',*,*,#202,.T.);
#360 = ORIENTED_EDGE('',*,*,#276,.T.);
#361 = ORIENTED_EDGE('',*,*,#353,.F.);
#362 = CYLINDRICAL_SURFACE('',#363,0.35);
#363 = AXIS2_PLACEMENT_3D('',#364,#365,#366);
#364 = CARTESIAN_POINT('',(-2.5,0.,-2.));
#365 = DIRECTION('',(-0.,0.,-1.));
#366 = DIRECTION('',(1.110223024625E-16,-1.,0.));
#367 = ADVANCED_FACE('',(#368),#371,.T.);
#368 = FACE_BOUND('',#369,.F.);
#369 = EDGE_LOOP('',(#370));
#370 = ORIENTED_EDGE('',*,*,#344,.T.);
#371 = PLANE('',#372);
#372 = AXIS2_PLACEMENT_3D('',#373,#374,#375);
#373 = CARTESIAN_POINT('',(-2.5,-0.35,-2.));
#374 = DIRECTION('',(0.,0.,-1.));
#375 = DIRECTION('',(-1.110223024625E-16,1.,0.));
#376 = ( GEOMETRIC_REPRESENTATION_CONTEXT(3)
GLOBAL_UNCERTAINTY_ASSIGNED_CONTEXT((#380)) GLOBAL_UNIT_ASSIGNED_CONTEXT
((#377,#378,#379)) REPRESENTATION_CONTEXT('Context #1',
'3D Context with UNIT and UNCERTAINTY') );
#377 = ( LENGTH_UNIT() NAMED_UNIT(*) SI_UNIT(.MILLI.,.METRE.) );
#378 = ( NAMED_UNIT(*) PLANE_ANGLE_UNIT() SI_UNIT($,.RADIAN.) );
#379 = ( NAMED_UNIT(*) SI_UNIT($,.STERADIAN.) SOLID_ANGLE_UNIT() );
#380 = UNCERTAINTY_MEASURE_WITH_UNIT(LENGTH_MEASURE(2.E-06),#377,
'distance_accuracy_value','confusion accuracy');
#381 = SHAPE_DEFINITION_REPRESENTATION(#382,#25);
#382 = PRODUCT_DEFINITION_SHAPE('','',#383);
#383 = PRODUCT_DEFINITION('design','',#384,#387);
#384 = PRODUCT_DEFINITION_FORMATION('','',#385);
#385 = PRODUCT('C_Disc_D80mm_W50mm_P500mm','C_Disc_D80mm_W50mm_P500mm',
'',(#386));
#386 = MECHANICAL_CONTEXT('',#2,'mechanical');
#387 = PRODUCT_DEFINITION_CONTEXT('part definition',#2,'design');
#388 = CONTEXT_DEPENDENT_SHAPE_REPRESENTATION(#389,#391);
#389 = ( REPRESENTATION_RELATIONSHIP('','',#25,#10)
REPRESENTATION_RELATIONSHIP_WITH_TRANSFORMATION(#390)
SHAPE_REPRESENTATION_RELATIONSHIP() );
#390 = ITEM_DEFINED_TRANSFORMATION('','',#11,#15);
#391 = PRODUCT_DEFINITION_SHAPE('Placement','Placement of an item',#392
);
#392 = NEXT_ASSEMBLY_USAGE_OCCURRENCE('1','=>[0:1:1:2]','',#5,#383,$);
#393 = PRODUCT_TYPE('part',$,(#385));
#394 = MECHANICAL_DESIGN_GEOMETRIC_PRESENTATION_REPRESENTATION('',(#395,
#403,#410,#418,#425,#432),#376);
#395 = STYLED_ITEM('color',(#396),#28);
#396 = PRESENTATION_STYLE_ASSIGNMENT((#397));
#397 = SURFACE_STYLE_USAGE(.BOTH.,#398);
#398 = SURFACE_SIDE_STYLE('',(#399));
#399 = SURFACE_STYLE_FILL_AREA(#400);
#400 = FILL_AREA_STYLE('',(#401));
#401 = FILL_AREA_STYLE_COLOUR('',#402);
#402 = COLOUR_RGB('',0.824000000954,0.819999992847,0.78100001812);
#403 = STYLED_ITEM('color',(#404),#45);
#404 = PRESENTATION_STYLE_ASSIGNMENT((#405));
#405 = SURFACE_STYLE_USAGE(.BOTH.,#406);
#406 = SURFACE_SIDE_STYLE('',(#407));
#407 = SURFACE_STYLE_FILL_AREA(#408);
#408 = FILL_AREA_STYLE('',(#409));
#409 = FILL_AREA_STYLE_COLOUR('',#402);
#410 = STYLED_ITEM('color',(#411),#168);
#411 = PRESENTATION_STYLE_ASSIGNMENT((#412));
#412 = SURFACE_STYLE_USAGE(.BOTH.,#413);
#413 = SURFACE_SIDE_STYLE('',(#414));
#414 = SURFACE_STYLE_FILL_AREA(#415);
#415 = FILL_AREA_STYLE('',(#416));
#416 = FILL_AREA_STYLE_COLOUR('',#417);
#417 = COLOUR_RGB('',0.809000015259,0.425999999046,0.148000001907);
#418 = STYLED_ITEM('color',(#419),#262);
#419 = PRESENTATION_STYLE_ASSIGNMENT((#420));
#420 = SURFACE_STYLE_USAGE(.BOTH.,#421);
#421 = SURFACE_SIDE_STYLE('',(#422));
#422 = SURFACE_STYLE_FILL_AREA(#423);
#423 = FILL_AREA_STYLE('',(#424));
#424 = FILL_AREA_STYLE_COLOUR('',#417);
#425 = STYLED_ITEM('color',(#426),#340);
#426 = PRESENTATION_STYLE_ASSIGNMENT((#427));
#427 = SURFACE_STYLE_USAGE(.BOTH.,#428);
#428 = SURFACE_SIDE_STYLE('',(#429));
#429 = SURFACE_STYLE_FILL_AREA(#430);
#430 = FILL_AREA_STYLE('',(#431));
#431 = FILL_AREA_STYLE_COLOUR('',#402);
#432 = STYLED_ITEM('color',(#433),#367);
#433 = PRESENTATION_STYLE_ASSIGNMENT((#434));
#434 = SURFACE_STYLE_USAGE(.BOTH.,#435);
#435 = SURFACE_SIDE_STYLE('',(#436));
#436 = SURFACE_STYLE_FILL_AREA(#437);
#437 = FILL_AREA_STYLE('',(#438));
#438 = FILL_AREA_STYLE_COLOUR('',#402);
ENDSEC;
END-ISO-10303-21;
