ISO-10303-21;
HEADER;
/* C_Disc_D9.0mm_W5.0mm_P5.00mm.step 3D STEP model for use in ECAD systems
 * Copyright (C) 2017, kicad StepUp
 * 
 * This program is free software: you can redistribute it and/or modify
 * it under the terms of the GNU General Public License as published by
 * the Free Software Foundation, either version 3 of the License, or
 * any later version.
 * 
 * This program is distributed in the hope that it will be useful,
 * but WITHOUT ANY WARRANTY; without even the implied warranty of
 * MERCHANTABILITY or FITNESS FOR A PARTICULAR PURPOSE.  See the
 * GNU General Public License for more details.
 * 
 * You should have received a copy of the GNU General Public License
 * along with this program.  If not, see http://www.gnu.org/licenses/.
 * 
 * As a special exception, if you create a design which uses this symbol,
 * and embed this symbol or unaltered portions of this symbol into the design,
 * this symbol does not by itself cause the resulting design to be covered by
 * the GNU General Public License.
 * This exception does not however invalidate any other reasons why the design
 * itself might be covered by the GNU General Public License. 
 * If you modify this symbol, you may extend this exception to your version of the symbol,
 * but you are not obligated to do so.
 * If you do not wish to do so, delete this exception statement from your version
 * Risk disclaimer
 * *USE 3D CAD DATA AT YOUR OWN RISK*
 * *DO NOT RELY UPON ANY INFORMATION FOUND HERE WITHOUT INDEPENDENT VERIFICATION.*
 * 
 */

FILE_DESCRIPTION(
/* description */ ('model of C_Disc_D9.0mm_W5.0mm_P5.00mm'),
/* implementation_level */ '2;1');

FILE_NAME(
/* name */ 'C_Disc_D9.0mm_W5.0mm_P5.00mm.step',
/* time_stamp */ '2017-07-29T01:51:03',
/* author */ ('kicad StepUp','ksu'),
/* organization */ ('FreeCAD'),
/* preprocessor_version */ 'OCC',
/* originating_system */ 'kicad StepUp',
/* authorisation */ '');

FILE_SCHEMA(('AUTOMOTIVE_DESIGN_CC2 { 1 2 10303 214 -1 1 5 4 }'));
ENDSEC;

DATA;
#1 = APPLICATION_PROTOCOL_DEFINITION('committee draft',
'automotive_design',1997,#2);
#2 = APPLICATION_CONTEXT(
'core data for automotive mechanical design processes');
#3 = SHAPE_DEFINITION_REPRESENTATION(#4,#10);
#4 = PRODUCT_DEFINITION_SHAPE('','',#5);
#5 = PRODUCT_DEFINITION('design','',#6,#9);
#6 = PRODUCT_DEFINITION_FORMATION('','',#7);
#7 = PRODUCT('C_Disc_D90mm_W50mm_P500mm','C_Disc_D90mm_W50mm_P500mm','',
(#8));
#8 = MECHANICAL_CONTEXT('',#2,'mechanical');
#9 = PRODUCT_DEFINITION_CONTEXT('part definition',#2,'design');
#10 = ADVANCED_BREP_SHAPE_REPRESENTATION('',(#11,#15),#313);
#11 = AXIS2_PLACEMENT_3D('',#12,#13,#14);
#12 = CARTESIAN_POINT('',(0.,0.,0.));
#13 = DIRECTION('',(0.,0.,1.));
#14 = DIRECTION('',(1.,0.,-0.));
#15 = MANIFOLD_SOLID_BREP('',#16);
#16 = CLOSED_SHELL('',(#17,#34,#131,#213,#277,#304));
#17 = ADVANCED_FACE('',(#18),#29,.F.);
#18 = FACE_BOUND('',#19,.F.);
#19 = EDGE_LOOP('',(#20));
#20 = ORIENTED_EDGE('',*,*,#21,.T.);
#21 = EDGE_CURVE('',#22,#22,#24,.T.);
#22 = VERTEX_POINT('',#23);
#23 = CARTESIAN_POINT('',(-2.5,-0.35,-2.));
#24 = CIRCLE('',#25,0.35);
#25 = AXIS2_PLACEMENT_3D('',#26,#27,#28);
#26 = CARTESIAN_POINT('',(-2.5,0.,-2.));
#27 = DIRECTION('',(-0.,0.,1.));
#28 = DIRECTION('',(1.110223024625E-16,-1.,0.));
#29 = PLANE('',#30);
#30 = AXIS2_PLACEMENT_3D('',#31,#32,#33);
#31 = CARTESIAN_POINT('',(-2.5,0.,-2.));
#32 = DIRECTION('',(0.,0.,1.));
#33 = DIRECTION('',(1.110223024625E-16,-1.,0.));
#34 = ADVANCED_FACE('',(#35),#126,.T.);
#35 = FACE_BOUND('',#36,.F.);
#36 = EDGE_LOOP('',(#37,#38,#46,#63,#100,#125));
#37 = ORIENTED_EDGE('',*,*,#21,.F.);
#38 = ORIENTED_EDGE('',*,*,#39,.T.);
#39 = EDGE_CURVE('',#22,#40,#42,.T.);
#40 = VERTEX_POINT('',#41);
#41 = CARTESIAN_POINT('',(-2.5,-0.35,1.147826771438));
#42 = LINE('',#43,#44);
#43 = CARTESIAN_POINT('',(-2.5,-0.35,-2.));
#44 = VECTOR('',#45,1.);
#45 = DIRECTION('',(0.,0.,1.));
#46 = ORIENTED_EDGE('',*,*,#47,.T.);
#47 = EDGE_CURVE('',#40,#48,#50,.T.);
#48 = VERTEX_POINT('',#49);
#49 = CARTESIAN_POINT('',(-2.15,2.220446022663E-16,0.646836709672));
#50 = B_SPLINE_CURVE_WITH_KNOTS('',6,(#51,#52,#53,#54,#55,#56,#57,#58,
#59,#60,#61,#62),.UNSPECIFIED.,.F.,.F.,(7,5,7),(0.,0.472516992957,1.
),.UNSPECIFIED.);
#51 = CARTESIAN_POINT('',(-2.5,-0.35,1.147826771438));
#52 = CARTESIAN_POINT('',(-2.455004515137,-0.349999995772,1.115241870015
));
#53 = CARTESIAN_POINT('',(-2.411189993586,-0.343058404838,1.07825085438)
);
#54 = CARTESIAN_POINT('',(-2.369558103757,-0.329859297341,1.03832267128)
);
#55 = CARTESIAN_POINT('',(-2.330808934368,-0.311051038911,0.996602887295
));
#56 = CARTESIAN_POINT('',(-2.295525794711,-0.287183145995,0.95397846779)
);
#57 = CARTESIAN_POINT('',(-2.229447376737,-0.226989637108,0.863504492242
));
#58 = CARTESIAN_POINT('',(-2.19969702122,-0.189579062335,0.815686015602)
);
#59 = CARTESIAN_POINT('',(-2.175864527519,-0.147217261543,0.768864840994
));
#60 = CARTESIAN_POINT('',(-2.158921842497,-0.10065160368,0.72416581742)
);
#61 = CARTESIAN_POINT('',(-2.15,-5.101090135079E-02,0.682967401296));
#62 = CARTESIAN_POINT('',(-2.15,0.,0.646836709672));
#63 = ORIENTED_EDGE('',*,*,#64,.T.);
#64 = EDGE_CURVE('',#48,#65,#67,.T.);
#65 = VERTEX_POINT('',#66);
#66 = CARTESIAN_POINT('',(-2.85,2.220446022663E-16,1.117543970127));
#67 = B_SPLINE_CURVE_WITH_KNOTS('',6,(#68,#69,#70,#71,#72,#73,#74,#75,
#76,#77,#78,#79,#80,#81,#82,#83,#84,#85,#86,#87,#88,#89,#90,#91,#92,
#93,#94,#95,#96,#97,#98,#99),.UNSPECIFIED.,.F.,.F.,(7,5,5,5,5,5,7),(
0.,0.276017585356,0.544720850263,0.617625650588,0.745346478808,
0.898944672128,1.),.UNSPECIFIED.);
#68 = CARTESIAN_POINT('',(-2.15,1.74264868768E-17,0.646836709672));
#69 = CARTESIAN_POINT('',(-2.15,5.096103112E-02,0.682932078534));
#70 = CARTESIAN_POINT('',(-2.158904405253,0.100554657272,0.724085350633)
);
#71 = CARTESIAN_POINT('',(-2.175814937622,0.147080854517,0.768733927088)
);
#72 = CARTESIAN_POINT('',(-2.199603958035,0.189413509687,0.815503094845)
);
#73 = CARTESIAN_POINT('',(-2.229302085472,0.226806843485,0.863270897224)
);
#74 = CARTESIAN_POINT('',(-2.297972743345,0.289460984831,0.95736235278)
);
#75 = CARTESIAN_POINT('',(-2.336626840357,0.314970156402,1.003620168924)
);
#76 = CARTESIAN_POINT('',(-2.379310083262,0.334478141459,1.048743213335)
);
#77 = CARTESIAN_POINT('',(-2.425287861454,0.347271560638,1.091593713923)
);
#78 = CARTESIAN_POINT('',(-2.473627390454,0.352482792134,1.130624949575)
);
#79 = CARTESIAN_POINT('',(-2.536286572198,0.348371753019,1.172863209549)
);
#80 = CARTESIAN_POINT('',(-2.549723589928,0.346873074799,1.18144657392)
);
#81 = CARTESIAN_POINT('',(-2.563194022462,0.344737020823,1.189558184352)
);
#82 = CARTESIAN_POINT('',(-2.576661430395,0.341948605546,1.19715372847)
);
#83 = CARTESIAN_POINT('',(-2.590084199708,0.33849603671,1.204187504728)
);
#84 = CARTESIAN_POINT('',(-2.62677097606,0.327149454234,1.221874047369)
);
#85 = CARTESIAN_POINT('',(-2.649851429147,0.317866182351,1.231273978394)
);
#86 = CARTESIAN_POINT('',(-2.672395080841,0.306490536023,1.23856671874)
);
#87 = CARTESIAN_POINT('',(-2.694092437384,0.293047047231,1.24351674798)
);
#88 = CARTESIAN_POINT('',(-2.714607776023,0.277664270243,1.245966426813)
);
#89 = CARTESIAN_POINT('',(-2.756545286367,0.240063106315,1.24583539791)
);
#90 = CARTESIAN_POINT('',(-2.777328608449,0.217073797443,1.242135039922)
);
#91 = CARTESIAN_POINT('',(-2.795461535036,0.192068476772,1.23477584517)
);
#92 = CARTESIAN_POINT('',(-2.810655680015,0.165628486196,1.224060953417)
);
#93 = CARTESIAN_POINT('',(-2.822848983905,0.138295199558,1.210448462635)
);
#94 = CARTESIAN_POINT('',(-2.838174883714,9.224272534666E-02,
1.183835798658));
#95 = CARTESIAN_POINT('',(-2.842982244461,7.376896733768E-02,
1.172215421988));
#96 = CARTESIAN_POINT('',(-2.846532062885,5.521471361341E-02,
1.159659929632));
#97 = CARTESIAN_POINT('',(-2.848857590443,3.668126987694E-02,
1.146290891808));
#98 = CARTESIAN_POINT('',(-2.85,1.825347905629E-02,1.132220319496));
#99 = CARTESIAN_POINT('',(-2.85,0.,1.117543970127));
#100 = ORIENTED_EDGE('',*,*,#101,.T.);
#101 = EDGE_CURVE('',#65,#40,#102,.T.);
#102 = B_SPLINE_CURVE_WITH_KNOTS('',6,(#103,#104,#105,#106,#107,#108,
#109,#110,#111,#112,#113,#114,#115,#116,#117,#118,#119,#120,#121,
#122,#123,#124),.UNSPECIFIED.,.F.,.F.,(7,5,5,5,7),(0.,0.211769010502
,0.533948804236,0.824694253917,1.),.UNSPECIFIED.);
#103 = CARTESIAN_POINT('',(-2.85,0.,1.117543970127));
#104 = CARTESIAN_POINT('',(-2.85,-1.821495052516E-02,1.132189341392));
#105 = CARTESIAN_POINT('',(-2.84886240842,-3.660348477949E-02,
1.146231496436));
#106 = CARTESIAN_POINT('',(-2.846546771188,-5.50973648713E-02,
1.159575269466));
#107 = CARTESIAN_POINT('',(-2.843012180632,-7.361231903337E-02,
1.172109396105));
#108 = CARTESIAN_POINT('',(-2.838225563583,-9.204775889713E-02,
1.183713122661));
#109 = CARTESIAN_POINT('',(-2.822957148166,-0.13803443208,1.210312839979
));
#110 = CARTESIAN_POINT('',(-2.810802353551,-0.165341591891,
1.223931564479));
#111 = CARTESIAN_POINT('',(-2.795653690509,-0.191760982518,
1.234662615578));
#112 = CARTESIAN_POINT('',(-2.777571959589,-0.216753647241,
1.242049165785));
#113 = CARTESIAN_POINT('',(-2.756842937897,-0.239740084662,
1.245787596126));
#114 = CARTESIAN_POINT('',(-2.713384702555,-0.278810731308,
1.246011865969));
#115 = CARTESIAN_POINT('',(-2.691031975895,-0.295363871828,
1.243169724948));
#116 = CARTESIAN_POINT('',(-2.667315149665,-0.309614925782,
1.237388286506));
#117 = CARTESIAN_POINT('',(-2.642666368544,-0.321413183512,
1.228884330169));
#118 = CARTESIAN_POINT('',(-2.617472611265,-0.330748365731,
1.217971730914));
#119 = CARTESIAN_POINT('',(-2.576722562101,-0.341856784416,
1.197126114636));
#120 = CARTESIAN_POINT('',(-2.561309046378,-0.345161473476,1.18852327676
));
#121 = CARTESIAN_POINT('',(-2.545876402765,-0.347605707376,
1.179226395115));
#122 = CARTESIAN_POINT('',(-2.530482404002,-0.349210293642,
1.169303024345));
#123 = CARTESIAN_POINT('',(-2.515176512061,-0.349999998574,
1.158817319573));
#124 = CARTESIAN_POINT('',(-2.5,-0.35,1.147826771438));
#125 = ORIENTED_EDGE('',*,*,#39,.F.);
#126 = CYLINDRICAL_SURFACE('',#127,0.35);
#127 = AXIS2_PLACEMENT_3D('',#128,#129,#130);
#128 = CARTESIAN_POINT('',(-2.5,0.,-2.));
#129 = DIRECTION('',(-0.,0.,-1.));
#130 = DIRECTION('',(1.110223024625E-16,-1.,0.));
#131 = ADVANCED_FACE('',(#132),#208,.T.);
#132 = FACE_BOUND('',#133,.T.);
#133 = EDGE_LOOP('',(#134,#145,#152,#153,#154,#163,#200,#207));
#134 = ORIENTED_EDGE('',*,*,#135,.F.);
#135 = EDGE_CURVE('',#136,#138,#140,.T.);
#136 = VERTEX_POINT('',#137);
#137 = CARTESIAN_POINT('',(-4.5,2.220446022663E-16,4.6));
#138 = VERTEX_POINT('',#139);
#139 = CARTESIAN_POINT('',(0.,-2.5,4.6));
#140 = CIRCLE('',#141,5.3);
#141 = AXIS2_PLACEMENT_3D('',#142,#143,#144);
#142 = CARTESIAN_POINT('',(3.10862446895E-15,2.8,4.6));
#143 = DIRECTION('',(0.,0.,1.));
#144 = DIRECTION('',(-0.849056603774,-0.528301886792,0.));
#145 = ORIENTED_EDGE('',*,*,#146,.T.);
#146 = EDGE_CURVE('',#136,#65,#147,.T.);
#147 = CIRCLE('',#148,4.5);
#148 = AXIS2_PLACEMENT_3D('',#149,#150,#151);
#149 = CARTESIAN_POINT('',(0.,2.220446022663E-16,4.6));
#150 = DIRECTION('',(0.,-1.,0.));
#151 = DIRECTION('',(-1.,0.,0.));
#152 = ORIENTED_EDGE('',*,*,#101,.T.);
#153 = ORIENTED_EDGE('',*,*,#47,.T.);
#154 = ORIENTED_EDGE('',*,*,#155,.T.);
#155 = EDGE_CURVE('',#48,#156,#158,.T.);
#156 = VERTEX_POINT('',#157);
#157 = CARTESIAN_POINT('',(2.15,2.220446022663E-16,0.646836709672));
#158 = CIRCLE('',#159,4.5);
#159 = AXIS2_PLACEMENT_3D('',#160,#161,#162);
#160 = CARTESIAN_POINT('',(0.,2.220446022663E-16,4.6));
#161 = DIRECTION('',(0.,-1.,0.));
#162 = DIRECTION('',(-1.,0.,0.));
#163 = ORIENTED_EDGE('',*,*,#164,.T.);
#164 = EDGE_CURVE('',#156,#165,#167,.T.);
#165 = VERTEX_POINT('',#166);
#166 = CARTESIAN_POINT('',(2.85,2.220446022663E-16,1.117543970127));
#167 = B_SPLINE_CURVE_WITH_KNOTS('',6,(#168,#169,#170,#171,#172,#173,
#174,#175,#176,#177,#178,#179,#180,#181,#182,#183,#184,#185,#186,
#187,#188,#189,#190,#191,#192,#193,#194,#195,#196,#197,#198,#199),
.UNSPECIFIED.,.F.,.F.,(7,5,5,5,5,5,7),(0.,0.276017585357,
0.544720850264,0.617625650589,0.745346478809,0.898944672128,1.),
.UNSPECIFIED.);
#168 = CARTESIAN_POINT('',(2.15,0.,0.646836709672));
#169 = CARTESIAN_POINT('',(2.15,-5.096103112E-02,0.682932078534));
#170 = CARTESIAN_POINT('',(2.158904405253,-0.100554657272,0.724085350633
));
#171 = CARTESIAN_POINT('',(2.175814937622,-0.147080854517,0.768733927088
));
#172 = CARTESIAN_POINT('',(2.199603958035,-0.189413509687,0.815503094845
));
#173 = CARTESIAN_POINT('',(2.229302085472,-0.226806843485,0.863270897224
));
#174 = CARTESIAN_POINT('',(2.297972743345,-0.289460984831,0.95736235278)
);
#175 = CARTESIAN_POINT('',(2.336626840357,-0.314970156402,1.003620168924
));
#176 = CARTESIAN_POINT('',(2.379310083262,-0.334478141459,1.048743213335
));
#177 = CARTESIAN_POINT('',(2.425287861454,-0.347271560638,1.091593713922
));
#178 = CARTESIAN_POINT('',(2.473627390454,-0.352482792134,1.130624949575
));
#179 = CARTESIAN_POINT('',(2.536286572198,-0.348371753019,1.172863209549
));
#180 = CARTESIAN_POINT('',(2.549723589928,-0.346873074799,1.18144657392)
);
#181 = CARTESIAN_POINT('',(2.563194022462,-0.344737020823,1.189558184352
));
#182 = CARTESIAN_POINT('',(2.576661430395,-0.341948605546,1.19715372847)
);
#183 = CARTESIAN_POINT('',(2.590084199708,-0.33849603671,1.204187504728)
);
#184 = CARTESIAN_POINT('',(2.62677097606,-0.327149454234,1.221874047369)
);
#185 = CARTESIAN_POINT('',(2.649851429148,-0.317866182351,1.231273978394
));
#186 = CARTESIAN_POINT('',(2.672395080841,-0.306490536023,1.23856671874)
);
#187 = CARTESIAN_POINT('',(2.694092437384,-0.293047047231,1.24351674798)
);
#188 = CARTESIAN_POINT('',(2.714607776023,-0.277664270243,1.245966426813
));
#189 = CARTESIAN_POINT('',(2.756545286367,-0.240063106315,1.24583539791)
);
#190 = CARTESIAN_POINT('',(2.777328608449,-0.217073797443,1.242135039922
));
#191 = CARTESIAN_POINT('',(2.795461535036,-0.192068476772,1.23477584517)
);
#192 = CARTESIAN_POINT('',(2.810655680015,-0.165628486196,1.224060953417
));
#193 = CARTESIAN_POINT('',(2.822848983905,-0.138295199558,1.210448462634
));
#194 = CARTESIAN_POINT('',(2.838174883714,-9.224272534665E-02,
1.183835798658));
#195 = CARTESIAN_POINT('',(2.842982244461,-7.37689673377E-02,
1.172215421988));
#196 = CARTESIAN_POINT('',(2.846532062885,-5.52147136134E-02,
1.159659929632));
#197 = CARTESIAN_POINT('',(2.848857590443,-3.668126987692E-02,
1.146290891808));
#198 = CARTESIAN_POINT('',(2.85,-1.82534790563E-02,1.132220319496));
#199 = CARTESIAN_POINT('',(2.85,0.,1.117543970127));
#200 = ORIENTED_EDGE('',*,*,#201,.T.);
#201 = EDGE_CURVE('',#165,#136,#202,.T.);
#202 = CIRCLE('',#203,4.5);
#203 = AXIS2_PLACEMENT_3D('',#204,#205,#206);
#204 = CARTESIAN_POINT('',(0.,2.220446022663E-16,4.6));
#205 = DIRECTION('',(0.,-1.,0.));
#206 = DIRECTION('',(-1.,0.,0.));
#207 = ORIENTED_EDGE('',*,*,#135,.T.);
#208 = SPHERICAL_SURFACE('',#209,5.3);
#209 = AXIS2_PLACEMENT_3D('',#210,#211,#212);
#210 = CARTESIAN_POINT('',(3.10862446895E-15,2.8,4.6));
#211 = DIRECTION('',(0.,-1.,0.));
#212 = DIRECTION('',(-1.,0.,0.));
#213 = ADVANCED_FACE('',(#214),#272,.T.);
#214 = FACE_BOUND('',#215,.T.);
#215 = EDGE_LOOP('',(#216,#225,#226,#227,#254,#269,#270,#271));
#216 = ORIENTED_EDGE('',*,*,#217,.F.);
#217 = EDGE_CURVE('',#218,#136,#220,.T.);
#218 = VERTEX_POINT('',#219);
#219 = CARTESIAN_POINT('',(-7.88860905221E-31,2.5,4.6));
#220 = CIRCLE('',#221,5.3);
#221 = AXIS2_PLACEMENT_3D('',#222,#223,#224);
#222 = CARTESIAN_POINT('',(3.219646771413E-15,-2.8,4.6));
#223 = DIRECTION('',(0.,0.,1.));
#224 = DIRECTION('',(-6.074805229081E-16,1.,0.));
#225 = ORIENTED_EDGE('',*,*,#217,.T.);
#226 = ORIENTED_EDGE('',*,*,#201,.F.);
#227 = ORIENTED_EDGE('',*,*,#228,.T.);
#228 = EDGE_CURVE('',#165,#229,#231,.T.);
#229 = VERTEX_POINT('',#230);
#230 = CARTESIAN_POINT('',(2.5,0.35,1.147826771438));
#231 = B_SPLINE_CURVE_WITH_KNOTS('',6,(#232,#233,#234,#235,#236,#237,
#238,#239,#240,#241,#242,#243,#244,#245,#246,#247,#248,#249,#250,
#251,#252,#253),.UNSPECIFIED.,.F.,.F.,(7,5,5,5,7),(0.,0.211769010502
,0.533948804237,0.824694253917,1.),.UNSPECIFIED.);
#232 = CARTESIAN_POINT('',(2.85,-6.829878906351E-17,1.117543970127));
#233 = CARTESIAN_POINT('',(2.85,1.821495052516E-02,1.132189341392));
#234 = CARTESIAN_POINT('',(2.84886240842,3.66034847795E-02,
1.146231496436));
#235 = CARTESIAN_POINT('',(2.846546771188,5.50973648713E-02,
1.159575269466));
#236 = CARTESIAN_POINT('',(2.843012180632,7.361231903336E-02,
1.172109396105));
#237 = CARTESIAN_POINT('',(2.838225563583,9.204775889713E-02,
1.183713122661));
#238 = CARTESIAN_POINT('',(2.822957148166,0.13803443208,1.210312839979)
);
#239 = CARTESIAN_POINT('',(2.810802353551,0.165341591891,1.223931564479)
);
#240 = CARTESIAN_POINT('',(2.795653690509,0.191760982518,1.234662615578)
);
#241 = CARTESIAN_POINT('',(2.777571959589,0.21675364724,1.242049165785)
);
#242 = CARTESIAN_POINT('',(2.756842937897,0.239740084662,1.245787596126)
);
#243 = CARTESIAN_POINT('',(2.713384702555,0.278810731308,1.246011865969)
);
#244 = CARTESIAN_POINT('',(2.691031975895,0.295363871828,1.243169724948)
);
#245 = CARTESIAN_POINT('',(2.667315149666,0.309614925781,1.237388286506)
);
#246 = CARTESIAN_POINT('',(2.642666368544,0.321413183512,1.228884330169)
);
#247 = CARTESIAN_POINT('',(2.617472611265,0.330748365731,1.217971730914)
);
#248 = CARTESIAN_POINT('',(2.576722562101,0.341856784416,1.197126114636)
);
#249 = CARTESIAN_POINT('',(2.561309046378,0.345161473476,1.18852327676)
);
#250 = CARTESIAN_POINT('',(2.545876402765,0.347605707376,1.179226395115)
);
#251 = CARTESIAN_POINT('',(2.530482404002,0.349210293642,1.169303024345)
);
#252 = CARTESIAN_POINT('',(2.515176512061,0.349999998574,1.158817319573)
);
#253 = CARTESIAN_POINT('',(2.5,0.35,1.147826771438));
#254 = ORIENTED_EDGE('',*,*,#255,.T.);
#255 = EDGE_CURVE('',#229,#156,#256,.T.);
#256 = B_SPLINE_CURVE_WITH_KNOTS('',6,(#257,#258,#259,#260,#261,#262,
#263,#264,#265,#266,#267,#268),.UNSPECIFIED.,.F.,.F.,(7,5,7),(0.,
0.472516992957,1.),.UNSPECIFIED.);
#257 = CARTESIAN_POINT('',(2.5,0.35,1.147826771438));
#258 = CARTESIAN_POINT('',(2.455004515137,0.349999995772,1.115241870015)
);
#259 = CARTESIAN_POINT('',(2.411189993586,0.343058404838,1.07825085438)
);
#260 = CARTESIAN_POINT('',(2.369558103757,0.329859297341,1.03832267128)
);
#261 = CARTESIAN_POINT('',(2.330808934368,0.311051038911,0.996602887295)
);
#262 = CARTESIAN_POINT('',(2.295525794711,0.287183145995,0.95397846779)
);
#263 = CARTESIAN_POINT('',(2.229447376737,0.226989637108,0.863504492242)
);
#264 = CARTESIAN_POINT('',(2.19969702122,0.189579062335,0.815686015602)
);
#265 = CARTESIAN_POINT('',(2.175864527519,0.147217261543,0.768864840994)
);
#266 = CARTESIAN_POINT('',(2.158921842497,0.10065160368,0.72416581742));
#267 = CARTESIAN_POINT('',(2.15,5.101090135078E-02,0.682967401296));
#268 = CARTESIAN_POINT('',(2.15,0.,0.646836709672));
#269 = ORIENTED_EDGE('',*,*,#155,.F.);
#270 = ORIENTED_EDGE('',*,*,#64,.T.);
#271 = ORIENTED_EDGE('',*,*,#146,.F.);
#272 = SPHERICAL_SURFACE('',#273,5.3);
#273 = AXIS2_PLACEMENT_3D('',#274,#275,#276);
#274 = CARTESIAN_POINT('',(3.219646771413E-15,-2.8,4.6));
#275 = DIRECTION('',(0.,-1.,0.));
#276 = DIRECTION('',(-1.,0.,0.));
#277 = ADVANCED_FACE('',(#278),#299,.T.);
#278 = FACE_BOUND('',#279,.F.);
#279 = EDGE_LOOP('',(#280,#289,#295,#296,#297,#298));
#280 = ORIENTED_EDGE('',*,*,#281,.F.);
#281 = EDGE_CURVE('',#282,#282,#284,.T.);
#282 = VERTEX_POINT('',#283);
#283 = CARTESIAN_POINT('',(2.5,0.35,-2.));
#284 = CIRCLE('',#285,0.35);
#285 = AXIS2_PLACEMENT_3D('',#286,#287,#288);
#286 = CARTESIAN_POINT('',(2.5,0.,-2.));
#287 = DIRECTION('',(0.,-0.,1.));
#288 = DIRECTION('',(1.144237745222E-17,1.,0.));
#289 = ORIENTED_EDGE('',*,*,#290,.T.);
#290 = EDGE_CURVE('',#282,#229,#291,.T.);
#291 = LINE('',#292,#293);
#292 = CARTESIAN_POINT('',(2.5,0.35,-2.));
#293 = VECTOR('',#294,1.);
#294 = DIRECTION('',(0.,0.,1.));
#295 = ORIENTED_EDGE('',*,*,#255,.T.);
#296 = ORIENTED_EDGE('',*,*,#164,.T.);
#297 = ORIENTED_EDGE('',*,*,#228,.T.);
#298 = ORIENTED_EDGE('',*,*,#290,.F.);
#299 = CYLINDRICAL_SURFACE('',#300,0.35);
#300 = AXIS2_PLACEMENT_3D('',#301,#302,#303);
#301 = CARTESIAN_POINT('',(2.5,0.,-2.));
#302 = DIRECTION('',(0.,-0.,-1.));
#303 = DIRECTION('',(1.144237745222E-17,1.,0.));
#304 = ADVANCED_FACE('',(#305),#308,.F.);
#305 = FACE_BOUND('',#306,.F.);
#306 = EDGE_LOOP('',(#307));
#307 = ORIENTED_EDGE('',*,*,#281,.T.);
#308 = PLANE('',#309);
#309 = AXIS2_PLACEMENT_3D('',#310,#311,#312);
#310 = CARTESIAN_POINT('',(2.5,0.,-2.));
#311 = DIRECTION('',(0.,0.,1.));
#312 = DIRECTION('',(1.144237745222E-17,1.,0.));
#313 = ( GEOMETRIC_REPRESENTATION_CONTEXT(3)
GLOBAL_UNCERTAINTY_ASSIGNED_CONTEXT((#317)) GLOBAL_UNIT_ASSIGNED_CONTEXT
((#314,#315,#316)) REPRESENTATION_CONTEXT('Context #1',
'3D Context with UNIT and UNCERTAINTY') );
#314 = ( LENGTH_UNIT() NAMED_UNIT(*) SI_UNIT(.MILLI.,.METRE.) );
#315 = ( NAMED_UNIT(*) PLANE_ANGLE_UNIT() SI_UNIT($,.RADIAN.) );
#316 = ( NAMED_UNIT(*) SI_UNIT($,.STERADIAN.) SOLID_ANGLE_UNIT() );
#317 = UNCERTAINTY_MEASURE_WITH_UNIT(LENGTH_MEASURE(2.E-07),#314,
'distance_accuracy_value','confusion accuracy');
#318 = PRODUCT_TYPE('part',$,(#7));
#319 = MECHANICAL_DESIGN_GEOMETRIC_PRESENTATION_REPRESENTATION('',(#320,
#328,#335,#343,#350,#357),#313);
#320 = STYLED_ITEM('color',(#321),#17);
#321 = PRESENTATION_STYLE_ASSIGNMENT((#322));
#322 = SURFACE_STYLE_USAGE(.BOTH.,#323);
#323 = SURFACE_SIDE_STYLE('',(#324));
#324 = SURFACE_STYLE_FILL_AREA(#325);
#325 = FILL_AREA_STYLE('',(#326));
#326 = FILL_AREA_STYLE_COLOUR('',#327);
#327 = COLOUR_RGB('',0.824000000954,0.819999992847,0.78100001812);
#328 = STYLED_ITEM('color',(#329),#34);
#329 = PRESENTATION_STYLE_ASSIGNMENT((#330));
#330 = SURFACE_STYLE_USAGE(.BOTH.,#331);
#331 = SURFACE_SIDE_STYLE('',(#332));
#332 = SURFACE_STYLE_FILL_AREA(#333);
#333 = FILL_AREA_STYLE('',(#334));
#334 = FILL_AREA_STYLE_COLOUR('',#327);
#335 = STYLED_ITEM('color',(#336),#131);
#336 = PRESENTATION_STYLE_ASSIGNMENT((#337));
#337 = SURFACE_STYLE_USAGE(.BOTH.,#338);
#338 = SURFACE_SIDE_STYLE('',(#339));
#339 = SURFACE_STYLE_FILL_AREA(#340);
#340 = FILL_AREA_STYLE('',(#341));
#341 = FILL_AREA_STYLE_COLOUR('',#342);
#342 = COLOUR_RGB('',0.809000015259,0.425999999046,0.148000001907);
#343 = STYLED_ITEM('color',(#344),#213);
#344 = PRESENTATION_STYLE_ASSIGNMENT((#345));
#345 = SURFACE_STYLE_USAGE(.BOTH.,#346);
#346 = SURFACE_SIDE_STYLE('',(#347));
#347 = SURFACE_STYLE_FILL_AREA(#348);
#348 = FILL_AREA_STYLE('',(#349));
#349 = FILL_AREA_STYLE_COLOUR('',#342);
#350 = STYLED_ITEM('color',(#351),#277);
#351 = PRESENTATION_STYLE_ASSIGNMENT((#352));
#352 = SURFACE_STYLE_USAGE(.BOTH.,#353);
#353 = SURFACE_SIDE_STYLE('',(#354));
#354 = SURFACE_STYLE_FILL_AREA(#355);
#355 = FILL_AREA_STYLE('',(#356));
#356 = FILL_AREA_STYLE_COLOUR('',#327);
#357 = STYLED_ITEM('color',(#358),#304);
#358 = PRESENTATION_STYLE_ASSIGNMENT((#359));
#359 = SURFACE_STYLE_USAGE(.BOTH.,#360);
#360 = SURFACE_SIDE_STYLE('',(#361));
#361 = SURFACE_STYLE_FILL_AREA(#362);
#362 = FILL_AREA_STYLE('',(#363));
#363 = FILL_AREA_STYLE_COLOUR('',#327);
ENDSEC;
END-ISO-10303-21;
