ISO-10303-21;
HEADER;
/* C_Disc_D8.0mm_W5.0mm_P7.50mm.step 3D STEP model for use in ECAD systems
 * Copyright (C) 2017, kicad StepUp
 * 
 * This program is free software: you can redistribute it and/or modify
 * it under the terms of the GNU General Public License as published by
 * the Free Software Foundation, either version 3 of the License, or
 * any later version.
 * 
 * This program is distributed in the hope that it will be useful,
 * but WITHOUT ANY WARRANTY; without even the implied warranty of
 * MERCHANTABILITY or FITNESS FOR A PARTICULAR PURPOSE.  See the
 * GNU General Public License for more details.
 * 
 * You should have received a copy of the GNU General Public License
 * along with this program.  If not, see http://www.gnu.org/licenses/.
 * 
 * As a special exception, if you create a design which uses this symbol,
 * and embed this symbol or unaltered portions of this symbol into the design,
 * this symbol does not by itself cause the resulting design to be covered by
 * the GNU General Public License.
 * This exception does not however invalidate any other reasons why the design
 * itself might be covered by the GNU General Public License. 
 * If you modify this symbol, you may extend this exception to your version of the symbol,
 * but you are not obligated to do so.
 * If you do not wish to do so, delete this exception statement from your version
 * Risk disclaimer
 * *USE 3D CAD DATA AT YOUR OWN RISK*
 * *DO NOT RELY UPON ANY INFORMATION FOUND HERE WITHOUT INDEPENDENT VERIFICATION.*
 * 
 */

FILE_DESCRIPTION(
/* description */ ('model of C_Disc_D8.0mm_W5.0mm_P7.50mm'),
/* implementation_level */ '2;1');

FILE_NAME(
/* name */ 'C_Disc_D8.0mm_W5.0mm_P7.50mm.step',
/* time_stamp */ '2017-07-29T01:51:10',
/* author */ ('kicad StepUp','ksu'),
/* organization */ ('FreeCAD'),
/* preprocessor_version */ 'OCC',
/* originating_system */ 'kicad StepUp',
/* authorisation */ '');

FILE_SCHEMA(('AUTOMOTIVE_DESIGN_CC2 { 1 2 10303 214 -1 1 5 4 }'));
ENDSEC;

DATA;
#1 = APPLICATION_PROTOCOL_DEFINITION('committee draft',
'automotive_design',1997,#2);
#2 = APPLICATION_CONTEXT(
'core data for automotive mechanical design processes');
#3 = SHAPE_DEFINITION_REPRESENTATION(#4,#10);
#4 = PRODUCT_DEFINITION_SHAPE('','',#5);
#5 = PRODUCT_DEFINITION('design','',#6,#9);
#6 = PRODUCT_DEFINITION_FORMATION('','',#7);
#7 = PRODUCT('C_Disc_D80mm_W50mm_P750mm','C_Disc_D80mm_W50mm_P750mm','',
(#8));
#8 = MECHANICAL_CONTEXT('',#2,'mechanical');
#9 = PRODUCT_DEFINITION_CONTEXT('part definition',#2,'design');
#10 = ADVANCED_BREP_SHAPE_REPRESENTATION('',(#11,#15),#413);
#11 = AXIS2_PLACEMENT_3D('',#12,#13,#14);
#12 = CARTESIAN_POINT('',(0.,0.,0.));
#13 = DIRECTION('',(0.,0.,1.));
#14 = DIRECTION('',(1.,0.,-0.));
#15 = MANIFOLD_SOLID_BREP('',#16);
#16 = CLOSED_SHELL('',(#17,#34,#59,#89,#181,#258,#322,#349,#379,#404));
#17 = ADVANCED_FACE('',(#18),#29,.F.);
#18 = FACE_BOUND('',#19,.F.);
#19 = EDGE_LOOP('',(#20));
#20 = ORIENTED_EDGE('',*,*,#21,.T.);
#21 = EDGE_CURVE('',#22,#22,#24,.T.);
#22 = VERTEX_POINT('',#23);
#23 = CARTESIAN_POINT('',(-3.75,-0.35,-2.));
#24 = CIRCLE('',#25,0.35);
#25 = AXIS2_PLACEMENT_3D('',#26,#27,#28);
#26 = CARTESIAN_POINT('',(-3.75,0.,-2.));
#27 = DIRECTION('',(-0.,0.,1.));
#28 = DIRECTION('',(1.110223024625E-16,-1.,0.));
#29 = PLANE('',#30);
#30 = AXIS2_PLACEMENT_3D('',#31,#32,#33);
#31 = CARTESIAN_POINT('',(-3.75,0.,-2.));
#32 = DIRECTION('',(0.,0.,1.));
#33 = DIRECTION('',(1.110223024625E-16,-1.,0.));
#34 = ADVANCED_FACE('',(#35),#54,.T.);
#35 = FACE_BOUND('',#36,.F.);
#36 = EDGE_LOOP('',(#37,#38,#46,#53));
#37 = ORIENTED_EDGE('',*,*,#21,.F.);
#38 = ORIENTED_EDGE('',*,*,#39,.T.);
#39 = EDGE_CURVE('',#22,#40,#42,.T.);
#40 = VERTEX_POINT('',#41);
#41 = CARTESIAN_POINT('',(-3.75,-0.35,1.4));
#42 = LINE('',#43,#44);
#43 = CARTESIAN_POINT('',(-3.75,-0.35,-2.));
#44 = VECTOR('',#45,1.);
#45 = DIRECTION('',(0.,0.,1.));
#46 = ORIENTED_EDGE('',*,*,#47,.T.);
#47 = EDGE_CURVE('',#40,#40,#48,.T.);
#48 = CIRCLE('',#49,0.35);
#49 = AXIS2_PLACEMENT_3D('',#50,#51,#52);
#50 = CARTESIAN_POINT('',(-3.75,0.,1.4));
#51 = DIRECTION('',(-0.,0.,1.));
#52 = DIRECTION('',(1.110223024625E-16,-1.,0.));
#53 = ORIENTED_EDGE('',*,*,#39,.F.);
#54 = CYLINDRICAL_SURFACE('',#55,0.35);
#55 = AXIS2_PLACEMENT_3D('',#56,#57,#58);
#56 = CARTESIAN_POINT('',(-3.75,0.,-2.));
#57 = DIRECTION('',(-0.,0.,-1.));
#58 = DIRECTION('',(1.110223024625E-16,-1.,0.));
#59 = ADVANCED_FACE('',(#60),#80,.F.);
#60 = FACE_BOUND('',#61,.F.);
#61 = EDGE_LOOP('',(#62,#71,#72,#73));
#62 = ORIENTED_EDGE('',*,*,#63,.F.);
#63 = EDGE_CURVE('',#40,#64,#66,.T.);
#64 = VERTEX_POINT('',#65);
#65 = CARTESIAN_POINT('',(-3.656217782649,-0.35,1.75));
#66 = CIRCLE('',#67,0.7);
#67 = AXIS2_PLACEMENT_3D('',#68,#69,#70);
#68 = CARTESIAN_POINT('',(-3.05,-0.35,1.4));
#69 = DIRECTION('',(-1.110223024625E-16,1.,0.));
#70 = DIRECTION('',(-1.,-1.110223024625E-16,0.));
#71 = ORIENTED_EDGE('',*,*,#47,.F.);
#72 = ORIENTED_EDGE('',*,*,#63,.T.);
#73 = ORIENTED_EDGE('',*,*,#74,.T.);
#74 = EDGE_CURVE('',#64,#64,#75,.T.);
#75 = CIRCLE('',#76,0.35);
#76 = AXIS2_PLACEMENT_3D('',#77,#78,#79);
#77 = CARTESIAN_POINT('',(-3.656217782649,0.,1.75));
#78 = DIRECTION('',(0.5,5.551115123126E-17,0.866025403784));
#79 = DIRECTION('',(1.110223024625E-16,-1.,0.));
#80 = SURFACE_OF_REVOLUTION('',#81,#86);
#81 = CIRCLE('',#82,0.35);
#82 = AXIS2_PLACEMENT_3D('',#83,#84,#85);
#83 = CARTESIAN_POINT('',(-3.75,0.,1.4));
#84 = DIRECTION('',(-0.,0.,1.));
#85 = DIRECTION('',(1.110223024625E-16,-1.,0.));
#86 = AXIS1_PLACEMENT('',#87,#88);
#87 = CARTESIAN_POINT('',(-3.05,6.1,1.4));
#88 = DIRECTION('',(-1.110223024625E-16,1.,0.));
#89 = ADVANCED_FACE('',(#90),#176,.T.);
#90 = FACE_BOUND('',#91,.F.);
#91 = EDGE_LOOP('',(#92,#93,#101,#118,#150,#175));
#92 = ORIENTED_EDGE('',*,*,#74,.F.);
#93 = ORIENTED_EDGE('',*,*,#94,.T.);
#94 = EDGE_CURVE('',#64,#95,#97,.T.);
#95 = VERTEX_POINT('',#96);
#96 = CARTESIAN_POINT('',(-3.348384254722,-0.35,2.283183310642));
#97 = LINE('',#98,#99);
#98 = CARTESIAN_POINT('',(-3.656217782649,-0.35,1.75));
#99 = VECTOR('',#100,1.);
#100 = DIRECTION('',(0.5,5.551115123126E-17,0.866025403784));
#101 = ORIENTED_EDGE('',*,*,#102,.T.);
#102 = EDGE_CURVE('',#95,#103,#105,.T.);
#103 = VERTEX_POINT('',#104);
#104 = CARTESIAN_POINT('',(-3.245335882271,8.881784197001E-16,
1.761668327366));
#105 = B_SPLINE_CURVE_WITH_KNOTS('',6,(#106,#107,#108,#109,#110,#111,
#112,#113,#114,#115,#116,#117),.UNSPECIFIED.,.F.,.F.,(7,5,7),(0.,
0.439050973997,1.),.UNSPECIFIED.);
#106 = CARTESIAN_POINT('',(-3.348384254722,-0.35,2.283183310642));
#107 = CARTESIAN_POINT('',(-3.325424327782,-0.349999996077,
2.240868273365));
#108 = CARTESIAN_POINT('',(-3.304449021697,-0.344224859487,
2.196430584796));
#109 = CARTESIAN_POINT('',(-3.285778823498,-0.333021987514,2.15101105245
));
#110 = CARTESIAN_POINT('',(-3.269638961986,-0.316807779538,
2.105586493911));
#111 = CARTESIAN_POINT('',(-3.256228453067,-0.295996283151,
2.060990668134));
#112 = CARTESIAN_POINT('',(-3.232358120929,-0.239093694787,
1.963075879629));
#113 = CARTESIAN_POINT('',(-3.223762787661,-0.200391517613,
1.910819583628));
#114 = CARTESIAN_POINT('',(-3.220366010205,-0.155815630682,
1.862840899655));
#115 = CARTESIAN_POINT('',(-3.222631762718,-0.106407538772,
1.820799438463));
#116 = CARTESIAN_POINT('',(-3.230970738848,-5.374364914353E-02,
1.786549485632));
#117 = CARTESIAN_POINT('',(-3.245335882271,1.110223024625E-15,
1.761668327366));
#118 = ORIENTED_EDGE('',*,*,#119,.T.);
#119 = EDGE_CURVE('',#103,#120,#122,.T.);
#120 = VERTEX_POINT('',#121);
#121 = CARTESIAN_POINT('',(-3.649261949445,8.881784197001E-16,
2.462047856519));
#122 = B_SPLINE_CURVE_WITH_KNOTS('',6,(#123,#124,#125,#126,#127,#128,
#129,#130,#131,#132,#133,#134,#135,#136,#137,#138,#139,#140,#141,
#142,#143,#144,#145,#146,#147,#148,#149),.UNSPECIFIED.,.F.,.F.,(7,5,
5,5,5,7),(0.,0.28986060881,0.551414089723,0.763665750815,
0.913384940238,1.),.UNSPECIFIED.);
#123 = CARTESIAN_POINT('',(-3.245335882271,-1.296979663669E-15,
1.761668327366));
#124 = CARTESIAN_POINT('',(-3.230970739064,5.374364833675E-02,
1.786549485258));
#125 = CARTESIAN_POINT('',(-3.222631762865,0.106407537575,1.820799437613
));
#126 = CARTESIAN_POINT('',(-3.22036601016,0.155815629585,1.862840898548)
);
#127 = CARTESIAN_POINT('',(-3.223762787503,0.20039151693,1.910819582694)
);
#128 = CARTESIAN_POINT('',(-3.232358120817,0.23909369452,1.96307587917)
);
#129 = CARTESIAN_POINT('',(-3.257830559342,0.299815417019,2.067562419889
));
#130 = CARTESIAN_POINT('',(-3.273804595164,0.323066441452,2.1192471014)
);
#131 = CARTESIAN_POINT('',(-3.293364216036,0.340129567055,2.171880143918
));
#132 = CARTESIAN_POINT('',(-3.316211594093,0.350367653006,2.224182165199
));
#133 = CARTESIAN_POINT('',(-3.341984169506,0.353126422288,2.274558548095
));
#134 = CARTESIAN_POINT('',(-3.392904449433,0.343759256129,2.358927265053
));
#135 = CARTESIAN_POINT('',(-3.417249626765,0.334341450207,2.394209652271
));
#136 = CARTESIAN_POINT('',(-3.442771050857,0.319477895408,2.425918394078
));
#137 = CARTESIAN_POINT('',(-3.468947901163,0.299089417944,2.452797259705
));
#138 = CARTESIAN_POINT('',(-3.49497674468,0.273575426303,2.473636825706)
);
#139 = CARTESIAN_POINT('',(-3.537625703335,0.223046112018,2.497993609537
));
#140 = CARTESIAN_POINT('',(-3.55476767698,0.200087517635,2.504810304344)
);
#141 = CARTESIAN_POINT('',(-3.571102471603,0.175421965537,2.508177385815
));
#142 = CARTESIAN_POINT('',(-3.586364480242,0.149482623297,2.508106913588
));
#143 = CARTESIAN_POINT('',(-3.600358247481,0.122700851362,2.504765725227
));
#144 = CARTESIAN_POINT('',(-3.62023662534,7.97155309472E-02,
2.494709844926));
#145 = CARTESIAN_POINT('',(-3.627054526183,6.380817879506E-02,
2.490009894418));
#146 = CARTESIAN_POINT('',(-3.633380722664,4.781974755757E-02,
2.484340853643));
#147 = CARTESIAN_POINT('',(-3.639197851513,3.181675457219E-02,
2.477754697566));
#148 = CARTESIAN_POINT('',(-3.644494121792,1.585920869581E-02,
2.470305976255));
#149 = CARTESIAN_POINT('',(-3.649261949445,-1.33226762955E-15,
2.462047856519));
#150 = ORIENTED_EDGE('',*,*,#151,.T.);
#151 = EDGE_CURVE('',#120,#95,#152,.T.);
#152 = B_SPLINE_CURVE_WITH_KNOTS('',6,(#153,#154,#155,#156,#157,#158,
#159,#160,#161,#162,#163,#164,#165,#166,#167,#168,#169,#170,#171,
#172,#173,#174),.UNSPECIFIED.,.F.,.F.,(7,5,5,5,7),(0.,0.17982044915,
0.489162529889,0.809820693607,1.),.UNSPECIFIED.);
#153 = CARTESIAN_POINT('',(-3.649261949445,1.33226762955E-15,
2.462047856519));
#154 = CARTESIAN_POINT('',(-3.644478830046,-1.591007357925E-02,
2.470332462337));
#155 = CARTESIAN_POINT('',(-3.639163873462,-3.191911411617E-02,
2.477802468244));
#156 = CARTESIAN_POINT('',(-3.633324735906,-4.797372519484E-02,
2.484404197364));
#157 = CARTESIAN_POINT('',(-3.626973335748,-6.401329442928E-02,
2.490082566721));
#158 = CARTESIAN_POINT('',(-3.620127240797,-7.997061737566E-02,
2.494785114421));
#159 = CARTESIAN_POINT('',(-3.600225145753,-0.122956270053,
2.504798238293));
#160 = CARTESIAN_POINT('',(-3.586243953469,-0.149688954372,
2.508109088518));
#161 = CARTESIAN_POINT('',(-3.570999669541,-0.175579408713,
2.508158655593));
#162 = CARTESIAN_POINT('',(-3.554687123375,-0.200198269257,
2.504781484957));
#163 = CARTESIAN_POINT('',(-3.537570769431,-0.22311462136,2.497966080733
));
#164 = CARTESIAN_POINT('',(-3.501700349521,-0.265605928149,
2.477472680065));
#165 = CARTESIAN_POINT('',(-3.482898605286,-0.285040634865,
2.463546686855));
#166 = CARTESIAN_POINT('',(-3.463889477378,-0.301892397384,
2.446326606234));
#167 = CARTESIAN_POINT('',(-3.444995834702,-0.315935536358,
2.426207011602));
#168 = CARTESIAN_POINT('',(-3.426475671794,-0.327097038475,
2.403655099263));
#169 = CARTESIAN_POINT('',(-3.397886941259,-0.34031222624,2.364579777154
));
#170 = CARTESIAN_POINT('',(-3.387444282554,-0.344224615414,
2.349335268567));
#171 = CARTESIAN_POINT('',(-3.377242300289,-0.347133317076,
2.333485985149));
#172 = CARTESIAN_POINT('',(-3.367314159271,-0.349051873634,2.31712206208
));
#173 = CARTESIAN_POINT('',(-3.357687241252,-0.34999999841,2.300328667423
));
#174 = CARTESIAN_POINT('',(-3.348384254722,-0.35,2.283183310642));
#175 = ORIENTED_EDGE('',*,*,#94,.F.);
#176 = CYLINDRICAL_SURFACE('',#177,0.35);
#177 = AXIS2_PLACEMENT_3D('',#178,#179,#180);
#178 = CARTESIAN_POINT('',(-3.656217782649,0.,1.75));
#179 = DIRECTION('',(-0.5,-5.551115123126E-17,-0.866025403784));
#180 = DIRECTION('',(1.110223024625E-16,-1.,0.));
#181 = ADVANCED_FACE('',(#182),#253,.T.);
#182 = FACE_BOUND('',#183,.T.);
#183 = EDGE_LOOP('',(#184,#195,#202,#203,#204,#213,#245,#252));
#184 = ORIENTED_EDGE('',*,*,#185,.F.);
#185 = EDGE_CURVE('',#186,#188,#190,.T.);
#186 = VERTEX_POINT('',#187);
#187 = CARTESIAN_POINT('',(-4.,8.881784197001E-16,4.1));
#188 = VERTEX_POINT('',#189);
#189 = CARTESIAN_POINT('',(-2.22044604925E-16,-2.5,4.1));
#190 = CIRCLE('',#191,4.45);
#191 = AXIS2_PLACEMENT_3D('',#192,#193,#194);
#192 = CARTESIAN_POINT('',(-1.33226762955E-15,1.95,4.1));
#193 = DIRECTION('',(0.,0.,1.));
#194 = DIRECTION('',(-0.898876404494,-0.438202247191,0.));
#195 = ORIENTED_EDGE('',*,*,#196,.T.);
#196 = EDGE_CURVE('',#186,#120,#197,.T.);
#197 = CIRCLE('',#198,4.);
#198 = AXIS2_PLACEMENT_3D('',#199,#200,#201);
#199 = CARTESIAN_POINT('',(0.,8.881784197001E-16,4.1));
#200 = DIRECTION('',(0.,-1.,0.));
#201 = DIRECTION('',(-1.,0.,0.));
#202 = ORIENTED_EDGE('',*,*,#151,.T.);
#203 = ORIENTED_EDGE('',*,*,#102,.T.);
#204 = ORIENTED_EDGE('',*,*,#205,.T.);
#205 = EDGE_CURVE('',#103,#206,#208,.T.);
#206 = VERTEX_POINT('',#207);
#207 = CARTESIAN_POINT('',(3.245335882271,8.881784197001E-16,
1.761668327366));
#208 = CIRCLE('',#209,4.);
#209 = AXIS2_PLACEMENT_3D('',#210,#211,#212);
#210 = CARTESIAN_POINT('',(0.,8.881784197001E-16,4.1));
#211 = DIRECTION('',(0.,-1.,0.));
#212 = DIRECTION('',(-1.,0.,0.));
#213 = ORIENTED_EDGE('',*,*,#214,.T.);
#214 = EDGE_CURVE('',#206,#215,#217,.T.);
#215 = VERTEX_POINT('',#216);
#216 = CARTESIAN_POINT('',(3.649261949445,8.881784197001E-16,
2.462047856519));
#217 = B_SPLINE_CURVE_WITH_KNOTS('',6,(#218,#219,#220,#221,#222,#223,
#224,#225,#226,#227,#228,#229,#230,#231,#232,#233,#234,#235,#236,
#237,#238,#239,#240,#241,#242,#243,#244),.UNSPECIFIED.,.F.,.F.,(7,5,
5,5,5,7),(0.,0.289860608811,0.551414089723,0.763665750815,
0.913384940238,1.),.UNSPECIFIED.);
#218 = CARTESIAN_POINT('',(3.245335882271,1.110223024625E-15,
1.761668327366));
#219 = CARTESIAN_POINT('',(3.230970739064,-5.374364833674E-02,
1.786549485258));
#220 = CARTESIAN_POINT('',(3.222631762865,-0.106407537575,1.820799437613
));
#221 = CARTESIAN_POINT('',(3.22036601016,-0.155815629585,1.862840898548)
);
#222 = CARTESIAN_POINT('',(3.223762787503,-0.200391516931,1.910819582694
));
#223 = CARTESIAN_POINT('',(3.232358120817,-0.23909369452,1.96307587917)
);
#224 = CARTESIAN_POINT('',(3.257830559342,-0.299815417019,2.067562419889
));
#225 = CARTESIAN_POINT('',(3.273804595164,-0.323066441452,2.1192471014)
);
#226 = CARTESIAN_POINT('',(3.293364216036,-0.340129567055,2.171880143918
));
#227 = CARTESIAN_POINT('',(3.316211594093,-0.350367653006,2.224182165199
));
#228 = CARTESIAN_POINT('',(3.341984169506,-0.353126422288,2.274558548095
));
#229 = CARTESIAN_POINT('',(3.392904449433,-0.343759256129,2.358927265053
));
#230 = CARTESIAN_POINT('',(3.417249626765,-0.334341450207,2.39420965227)
);
#231 = CARTESIAN_POINT('',(3.442771050858,-0.319477895408,2.425918394078
));
#232 = CARTESIAN_POINT('',(3.468947901162,-0.299089417944,2.452797259704
));
#233 = CARTESIAN_POINT('',(3.49497674468,-0.273575426303,2.473636825706)
);
#234 = CARTESIAN_POINT('',(3.537625703335,-0.223046112019,2.497993609537
));
#235 = CARTESIAN_POINT('',(3.55476767698,-0.200087517634,2.504810304344)
);
#236 = CARTESIAN_POINT('',(3.571102471603,-0.175421965538,2.508177385815
));
#237 = CARTESIAN_POINT('',(3.586364480242,-0.149482623297,2.508106913588
));
#238 = CARTESIAN_POINT('',(3.600358247481,-0.122700851362,2.504765725227
));
#239 = CARTESIAN_POINT('',(3.62023662534,-7.971553094721E-02,
2.494709844926));
#240 = CARTESIAN_POINT('',(3.627054526183,-6.380817879506E-02,
2.490009894418));
#241 = CARTESIAN_POINT('',(3.633380722664,-4.781974755756E-02,
2.484340853643));
#242 = CARTESIAN_POINT('',(3.639197851513,-3.181675457219E-02,
2.477754697566));
#243 = CARTESIAN_POINT('',(3.644494121792,-1.585920869582E-02,
2.470305976255));
#244 = CARTESIAN_POINT('',(3.649261949445,1.110223024625E-15,
2.462047856519));
#245 = ORIENTED_EDGE('',*,*,#246,.T.);
#246 = EDGE_CURVE('',#215,#186,#247,.T.);
#247 = CIRCLE('',#248,4.);
#248 = AXIS2_PLACEMENT_3D('',#249,#250,#251);
#249 = CARTESIAN_POINT('',(0.,8.881784197001E-16,4.1));
#250 = DIRECTION('',(0.,-1.,0.));
#251 = DIRECTION('',(-1.,0.,0.));
#252 = ORIENTED_EDGE('',*,*,#185,.T.);
#253 = SPHERICAL_SURFACE('',#254,4.45);
#254 = AXIS2_PLACEMENT_3D('',#255,#256,#257);
#255 = CARTESIAN_POINT('',(-1.33226762955E-15,1.95,4.1));
#256 = DIRECTION('',(0.,-1.,0.));
#257 = DIRECTION('',(-1.,0.,0.));
#258 = ADVANCED_FACE('',(#259),#317,.T.);
#259 = FACE_BOUND('',#260,.T.);
#260 = EDGE_LOOP('',(#261,#270,#271,#272,#299,#314,#315,#316));
#261 = ORIENTED_EDGE('',*,*,#262,.F.);
#262 = EDGE_CURVE('',#263,#186,#265,.T.);
#263 = VERTEX_POINT('',#264);
#264 = CARTESIAN_POINT('',(0.,2.5,4.1));
#265 = CIRCLE('',#266,4.45);
#266 = AXIS2_PLACEMENT_3D('',#267,#268,#269);
#267 = CARTESIAN_POINT('',(-9.436895709314E-16,-1.95,4.1));
#268 = DIRECTION('',(0.,-0.,1.));
#269 = DIRECTION('',(2.120650721194E-16,1.,0.));
#270 = ORIENTED_EDGE('',*,*,#262,.T.);
#271 = ORIENTED_EDGE('',*,*,#246,.F.);
#272 = ORIENTED_EDGE('',*,*,#273,.T.);
#273 = EDGE_CURVE('',#215,#274,#276,.T.);
#274 = VERTEX_POINT('',#275);
#275 = CARTESIAN_POINT('',(3.348384254722,0.35,2.283183310642));
#276 = B_SPLINE_CURVE_WITH_KNOTS('',6,(#277,#278,#279,#280,#281,#282,
#283,#284,#285,#286,#287,#288,#289,#290,#291,#292,#293,#294,#295,
#296,#297,#298),.UNSPECIFIED.,.F.,.F.,(7,5,5,5,7),(0.,0.17982044915,
0.489162529889,0.809820693607,1.),.UNSPECIFIED.);
#277 = CARTESIAN_POINT('',(3.649261949445,-1.307664153266E-15,
2.462047856519));
#278 = CARTESIAN_POINT('',(3.644478830046,1.591007357926E-02,
2.470332462337));
#279 = CARTESIAN_POINT('',(3.639163873462,3.191911411617E-02,
2.477802468244));
#280 = CARTESIAN_POINT('',(3.633324735906,4.797372519484E-02,
2.484404197364));
#281 = CARTESIAN_POINT('',(3.626973335748,6.401329442928E-02,
2.490082566721));
#282 = CARTESIAN_POINT('',(3.620127240797,7.997061737566E-02,
2.494785114421));
#283 = CARTESIAN_POINT('',(3.600225145753,0.122956270053,2.504798238293)
);
#284 = CARTESIAN_POINT('',(3.586243953469,0.149688954372,2.508109088518)
);
#285 = CARTESIAN_POINT('',(3.570999669541,0.175579408713,2.508158655593)
);
#286 = CARTESIAN_POINT('',(3.554687123375,0.200198269257,2.504781484957)
);
#287 = CARTESIAN_POINT('',(3.537570769431,0.22311462136,2.497966080733)
);
#288 = CARTESIAN_POINT('',(3.501700349521,0.265605928149,2.477472680065)
);
#289 = CARTESIAN_POINT('',(3.482898605286,0.285040634865,2.463546686855)
);
#290 = CARTESIAN_POINT('',(3.463889477378,0.301892397384,2.446326606234)
);
#291 = CARTESIAN_POINT('',(3.444995834702,0.315935536358,2.426207011602)
);
#292 = CARTESIAN_POINT('',(3.426475671794,0.327097038475,2.403655099263)
);
#293 = CARTESIAN_POINT('',(3.397886941259,0.34031222624,2.364579777154)
);
#294 = CARTESIAN_POINT('',(3.387444282554,0.344224615414,2.349335268567)
);
#295 = CARTESIAN_POINT('',(3.377242300289,0.347133317076,2.333485985149)
);
#296 = CARTESIAN_POINT('',(3.367314159271,0.349051873634,2.31712206208)
);
#297 = CARTESIAN_POINT('',(3.357687241252,0.34999999841,2.300328667423)
);
#298 = CARTESIAN_POINT('',(3.348384254722,0.35,2.283183310642));
#299 = ORIENTED_EDGE('',*,*,#300,.T.);
#300 = EDGE_CURVE('',#274,#206,#301,.T.);
#301 = B_SPLINE_CURVE_WITH_KNOTS('',6,(#302,#303,#304,#305,#306,#307,
#308,#309,#310,#311,#312,#313),.UNSPECIFIED.,.F.,.F.,(7,5,7),(0.,
0.439050973997,1.),.UNSPECIFIED.);
#302 = CARTESIAN_POINT('',(3.348384254722,0.35,2.283183310642));
#303 = CARTESIAN_POINT('',(3.325424327782,0.349999996077,2.240868273365)
);
#304 = CARTESIAN_POINT('',(3.304449021698,0.344224859487,2.196430584796)
);
#305 = CARTESIAN_POINT('',(3.285778823498,0.333021987514,2.151011052449)
);
#306 = CARTESIAN_POINT('',(3.269638961986,0.316807779538,2.105586493911)
);
#307 = CARTESIAN_POINT('',(3.256228453067,0.295996283151,2.060990668134)
);
#308 = CARTESIAN_POINT('',(3.232358120929,0.239093694787,1.963075879629)
);
#309 = CARTESIAN_POINT('',(3.223762787661,0.200391517613,1.910819583628)
);
#310 = CARTESIAN_POINT('',(3.220366010205,0.155815630682,1.862840899655)
);
#311 = CARTESIAN_POINT('',(3.222631762718,0.106407538773,1.820799438463)
);
#312 = CARTESIAN_POINT('',(3.230970738848,5.374364914352E-02,
1.786549485632));
#313 = CARTESIAN_POINT('',(3.245335882271,-1.33226762955E-15,
1.761668327366));
#314 = ORIENTED_EDGE('',*,*,#205,.F.);
#315 = ORIENTED_EDGE('',*,*,#119,.T.);
#316 = ORIENTED_EDGE('',*,*,#196,.F.);
#317 = SPHERICAL_SURFACE('',#318,4.45);
#318 = AXIS2_PLACEMENT_3D('',#319,#320,#321);
#319 = CARTESIAN_POINT('',(-9.436895709314E-16,-1.95,4.1));
#320 = DIRECTION('',(0.,-1.,0.));
#321 = DIRECTION('',(-1.,0.,0.));
#322 = ADVANCED_FACE('',(#323),#344,.T.);
#323 = FACE_BOUND('',#324,.F.);
#324 = EDGE_LOOP('',(#325,#334,#340,#341,#342,#343));
#325 = ORIENTED_EDGE('',*,*,#326,.F.);
#326 = EDGE_CURVE('',#327,#327,#329,.T.);
#327 = VERTEX_POINT('',#328);
#328 = CARTESIAN_POINT('',(3.656217782649,0.35,1.75));
#329 = CIRCLE('',#330,0.35);
#330 = AXIS2_PLACEMENT_3D('',#331,#332,#333);
#331 = CARTESIAN_POINT('',(3.656217782649,0.,1.75));
#332 = DIRECTION('',(-0.5,5.72118872611E-18,0.866025403784));
#333 = DIRECTION('',(1.144237745222E-17,1.,0.));
#334 = ORIENTED_EDGE('',*,*,#335,.T.);
#335 = EDGE_CURVE('',#327,#274,#336,.T.);
#336 = LINE('',#337,#338);
#337 = CARTESIAN_POINT('',(3.656217782649,0.35,1.75));
#338 = VECTOR('',#339,1.);
#339 = DIRECTION('',(-0.5,5.72118872611E-18,0.866025403784));
#340 = ORIENTED_EDGE('',*,*,#300,.T.);
#341 = ORIENTED_EDGE('',*,*,#214,.T.);
#342 = ORIENTED_EDGE('',*,*,#273,.T.);
#343 = ORIENTED_EDGE('',*,*,#335,.F.);
#344 = CYLINDRICAL_SURFACE('',#345,0.35);
#345 = AXIS2_PLACEMENT_3D('',#346,#347,#348);
#346 = CARTESIAN_POINT('',(3.656217782649,0.,1.75));
#347 = DIRECTION('',(0.5,-5.72118872611E-18,-0.866025403784));
#348 = DIRECTION('',(1.144237745222E-17,1.,0.));
#349 = ADVANCED_FACE('',(#350),#370,.F.);
#350 = FACE_BOUND('',#351,.F.);
#351 = EDGE_LOOP('',(#352,#361,#368,#369));
#352 = ORIENTED_EDGE('',*,*,#353,.F.);
#353 = EDGE_CURVE('',#354,#327,#356,.T.);
#354 = VERTEX_POINT('',#355);
#355 = CARTESIAN_POINT('',(3.75,0.35,1.4));
#356 = CIRCLE('',#357,0.7);
#357 = AXIS2_PLACEMENT_3D('',#358,#359,#360);
#358 = CARTESIAN_POINT('',(3.05,0.35,1.4));
#359 = DIRECTION('',(-1.144237745222E-17,-1.,0.));
#360 = DIRECTION('',(1.,-1.144237745222E-17,0.));
#361 = ORIENTED_EDGE('',*,*,#362,.F.);
#362 = EDGE_CURVE('',#354,#354,#363,.T.);
#363 = CIRCLE('',#364,0.35);
#364 = AXIS2_PLACEMENT_3D('',#365,#366,#367);
#365 = CARTESIAN_POINT('',(3.75,0.,1.4));
#366 = DIRECTION('',(0.,-0.,1.));
#367 = DIRECTION('',(1.144237745222E-17,1.,0.));
#368 = ORIENTED_EDGE('',*,*,#353,.T.);
#369 = ORIENTED_EDGE('',*,*,#326,.T.);
#370 = SURFACE_OF_REVOLUTION('',#371,#376);
#371 = CIRCLE('',#372,0.35);
#372 = AXIS2_PLACEMENT_3D('',#373,#374,#375);
#373 = CARTESIAN_POINT('',(3.75,0.,1.4));
#374 = DIRECTION('',(0.,-0.,1.));
#375 = DIRECTION('',(1.144237745222E-17,1.,0.));
#376 = AXIS1_PLACEMENT('',#377,#378);
#377 = CARTESIAN_POINT('',(3.05,-6.1,1.4));
#378 = DIRECTION('',(-1.144237745222E-17,-1.,0.));
#379 = ADVANCED_FACE('',(#380),#399,.T.);
#380 = FACE_BOUND('',#381,.F.);
#381 = EDGE_LOOP('',(#382,#391,#397,#398));
#382 = ORIENTED_EDGE('',*,*,#383,.F.);
#383 = EDGE_CURVE('',#384,#384,#386,.T.);
#384 = VERTEX_POINT('',#385);
#385 = CARTESIAN_POINT('',(3.75,0.35,-2.));
#386 = CIRCLE('',#387,0.35);
#387 = AXIS2_PLACEMENT_3D('',#388,#389,#390);
#388 = CARTESIAN_POINT('',(3.75,0.,-2.));
#389 = DIRECTION('',(0.,-0.,1.));
#390 = DIRECTION('',(1.144237745222E-17,1.,0.));
#391 = ORIENTED_EDGE('',*,*,#392,.T.);
#392 = EDGE_CURVE('',#384,#354,#393,.T.);
#393 = LINE('',#394,#395);
#394 = CARTESIAN_POINT('',(3.75,0.35,-2.));
#395 = VECTOR('',#396,1.);
#396 = DIRECTION('',(0.,0.,1.));
#397 = ORIENTED_EDGE('',*,*,#362,.T.);
#398 = ORIENTED_EDGE('',*,*,#392,.F.);
#399 = CYLINDRICAL_SURFACE('',#400,0.35);
#400 = AXIS2_PLACEMENT_3D('',#401,#402,#403);
#401 = CARTESIAN_POINT('',(3.75,0.,-2.));
#402 = DIRECTION('',(0.,-0.,-1.));
#403 = DIRECTION('',(1.144237745222E-17,1.,0.));
#404 = ADVANCED_FACE('',(#405),#408,.F.);
#405 = FACE_BOUND('',#406,.F.);
#406 = EDGE_LOOP('',(#407));
#407 = ORIENTED_EDGE('',*,*,#383,.T.);
#408 = PLANE('',#409);
#409 = AXIS2_PLACEMENT_3D('',#410,#411,#412);
#410 = CARTESIAN_POINT('',(3.75,0.,-2.));
#411 = DIRECTION('',(0.,0.,1.));
#412 = DIRECTION('',(1.144237745222E-17,1.,0.));
#413 = ( GEOMETRIC_REPRESENTATION_CONTEXT(3)
GLOBAL_UNCERTAINTY_ASSIGNED_CONTEXT((#417)) GLOBAL_UNIT_ASSIGNED_CONTEXT
((#414,#415,#416)) REPRESENTATION_CONTEXT('Context #1',
'3D Context with UNIT and UNCERTAINTY') );
#414 = ( LENGTH_UNIT() NAMED_UNIT(*) SI_UNIT(.MILLI.,.METRE.) );
#415 = ( NAMED_UNIT(*) PLANE_ANGLE_UNIT() SI_UNIT($,.RADIAN.) );
#416 = ( NAMED_UNIT(*) SI_UNIT($,.STERADIAN.) SOLID_ANGLE_UNIT() );
#417 = UNCERTAINTY_MEASURE_WITH_UNIT(LENGTH_MEASURE(1.E-07),#414,
'distance_accuracy_value','confusion accuracy');
#418 = PRODUCT_TYPE('part',$,(#7));
#419 = MECHANICAL_DESIGN_GEOMETRIC_PRESENTATION_REPRESENTATION('',(#420,
#428,#435,#442,#449,#457,#464,#471,#478,#485),#413);
#420 = STYLED_ITEM('color',(#421),#17);
#421 = PRESENTATION_STYLE_ASSIGNMENT((#422));
#422 = SURFACE_STYLE_USAGE(.BOTH.,#423);
#423 = SURFACE_SIDE_STYLE('',(#424));
#424 = SURFACE_STYLE_FILL_AREA(#425);
#425 = FILL_AREA_STYLE('',(#426));
#426 = FILL_AREA_STYLE_COLOUR('',#427);
#427 = COLOUR_RGB('',0.824000000954,0.819999992847,0.78100001812);
#428 = STYLED_ITEM('color',(#429),#34);
#429 = PRESENTATION_STYLE_ASSIGNMENT((#430));
#430 = SURFACE_STYLE_USAGE(.BOTH.,#431);
#431 = SURFACE_SIDE_STYLE('',(#432));
#432 = SURFACE_STYLE_FILL_AREA(#433);
#433 = FILL_AREA_STYLE('',(#434));
#434 = FILL_AREA_STYLE_COLOUR('',#427);
#435 = STYLED_ITEM('color',(#436),#59);
#436 = PRESENTATION_STYLE_ASSIGNMENT((#437));
#437 = SURFACE_STYLE_USAGE(.BOTH.,#438);
#438 = SURFACE_SIDE_STYLE('',(#439));
#439 = SURFACE_STYLE_FILL_AREA(#440);
#440 = FILL_AREA_STYLE('',(#441));
#441 = FILL_AREA_STYLE_COLOUR('',#427);
#442 = STYLED_ITEM('color',(#443),#89);
#443 = PRESENTATION_STYLE_ASSIGNMENT((#444));
#444 = SURFACE_STYLE_USAGE(.BOTH.,#445);
#445 = SURFACE_SIDE_STYLE('',(#446));
#446 = SURFACE_STYLE_FILL_AREA(#447);
#447 = FILL_AREA_STYLE('',(#448));
#448 = FILL_AREA_STYLE_COLOUR('',#427);
#449 = STYLED_ITEM('color',(#450),#181);
#450 = PRESENTATION_STYLE_ASSIGNMENT((#451));
#451 = SURFACE_STYLE_USAGE(.BOTH.,#452);
#452 = SURFACE_SIDE_STYLE('',(#453));
#453 = SURFACE_STYLE_FILL_AREA(#454);
#454 = FILL_AREA_STYLE('',(#455));
#455 = FILL_AREA_STYLE_COLOUR('',#456);
#456 = COLOUR_RGB('',0.809000015259,0.425999999046,0.148000001907);
#457 = STYLED_ITEM('color',(#458),#258);
#458 = PRESENTATION_STYLE_ASSIGNMENT((#459));
#459 = SURFACE_STYLE_USAGE(.BOTH.,#460);
#460 = SURFACE_SIDE_STYLE('',(#461));
#461 = SURFACE_STYLE_FILL_AREA(#462);
#462 = FILL_AREA_STYLE('',(#463));
#463 = FILL_AREA_STYLE_COLOUR('',#456);
#464 = STYLED_ITEM('color',(#465),#322);
#465 = PRESENTATION_STYLE_ASSIGNMENT((#466));
#466 = SURFACE_STYLE_USAGE(.BOTH.,#467);
#467 = SURFACE_SIDE_STYLE('',(#468));
#468 = SURFACE_STYLE_FILL_AREA(#469);
#469 = FILL_AREA_STYLE('',(#470));
#470 = FILL_AREA_STYLE_COLOUR('',#427);
#471 = STYLED_ITEM('color',(#472),#349);
#472 = PRESENTATION_STYLE_ASSIGNMENT((#473));
#473 = SURFACE_STYLE_USAGE(.BOTH.,#474);
#474 = SURFACE_SIDE_STYLE('',(#475));
#475 = SURFACE_STYLE_FILL_AREA(#476);
#476 = FILL_AREA_STYLE('',(#477));
#477 = FILL_AREA_STYLE_COLOUR('',#427);
#478 = STYLED_ITEM('color',(#479),#379);
#479 = PRESENTATION_STYLE_ASSIGNMENT((#480));
#480 = SURFACE_STYLE_USAGE(.BOTH.,#481);
#481 = SURFACE_SIDE_STYLE('',(#482));
#482 = SURFACE_STYLE_FILL_AREA(#483);
#483 = FILL_AREA_STYLE('',(#484));
#484 = FILL_AREA_STYLE_COLOUR('',#427);
#485 = STYLED_ITEM('color',(#486),#404);
#486 = PRESENTATION_STYLE_ASSIGNMENT((#487));
#487 = SURFACE_STYLE_USAGE(.BOTH.,#488);
#488 = SURFACE_SIDE_STYLE('',(#489));
#489 = SURFACE_STYLE_FILL_AREA(#490);
#490 = FILL_AREA_STYLE('',(#491));
#491 = FILL_AREA_STYLE_COLOUR('',#427);
ENDSEC;
END-ISO-10303-21;
