ISO-10303-21;
HEADER;
/* C_Disc_D5.0mm_W2.5mm_P2.50mm.step 3D STEP model for use in ECAD systems
 * Copyright (C) 2017, kicad StepUp
 * 
 * This program is free software: you can redistribute it and/or modify
 * it under the terms of the GNU General Public License as published by
 * the Free Software Foundation, either version 3 of the License, or
 * any later version.
 * 
 * This program is distributed in the hope that it will be useful,
 * but WITHOUT ANY WARRANTY; without even the implied warranty of
 * MERCHANTABILITY or FITNESS FOR A PARTICULAR PURPOSE.  See the
 * GNU General Public License for more details.
 * 
 * You should have received a copy of the GNU General Public License
 * along with this program.  If not, see http://www.gnu.org/licenses/.
 * 
 * As a special exception, if you create a design which uses this symbol,
 * and embed this symbol or unaltered portions of this symbol into the design,
 * this symbol does not by itself cause the resulting design to be covered by
 * the GNU General Public License.
 * This exception does not however invalidate any other reasons why the design
 * itself might be covered by the GNU General Public License. 
 * If you modify this symbol, you may extend this exception to your version of the symbol,
 * but you are not obligated to do so.
 * If you do not wish to do so, delete this exception statement from your version
 * Risk disclaimer
 * *USE 3D CAD DATA AT YOUR OWN RISK*
 * *DO NOT RELY UPON ANY INFORMATION FOUND HERE WITHOUT INDEPENDENT VERIFICATION.*
 * 
 */

FILE_DESCRIPTION(
/* description */ ('model of C_Disc_D5.0mm_W2.5mm_P2.50mm'),
/* implementation_level */ '2;1');

FILE_NAME(
/* name */ 'C_Disc_D5.0mm_W2.5mm_P2.50mm.step',
/* time_stamp */ '2017-07-29T01:51:08',
/* author */ ('kicad StepUp','ksu'),
/* organization */ ('FreeCAD'),
/* preprocessor_version */ 'OCC',
/* originating_system */ 'kicad StepUp',
/* authorisation */ '');

FILE_SCHEMA(('AUTOMOTIVE_DESIGN_CC2 { 1 2 10303 214 -1 1 5 4 }'));
ENDSEC;

DATA;
#1 = APPLICATION_PROTOCOL_DEFINITION('committee draft',
'automotive_design',1997,#2);
#2 = APPLICATION_CONTEXT(
'core data for automotive mechanical design processes');
#3 = SHAPE_DEFINITION_REPRESENTATION(#4,#10);
#4 = PRODUCT_DEFINITION_SHAPE('','',#5);
#5 = PRODUCT_DEFINITION('design','',#6,#9);
#6 = PRODUCT_DEFINITION_FORMATION('','',#7);
#7 = PRODUCT('C_Disc_D50mm_W25mm_P250mm','C_Disc_D50mm_W25mm_P250mm','',
(#8));
#8 = MECHANICAL_CONTEXT('',#2,'mechanical');
#9 = PRODUCT_DEFINITION_CONTEXT('part definition',#2,'design');
#10 = ADVANCED_BREP_SHAPE_REPRESENTATION('',(#11,#15),#303);
#11 = AXIS2_PLACEMENT_3D('',#12,#13,#14);
#12 = CARTESIAN_POINT('',(0.,0.,0.));
#13 = DIRECTION('',(0.,0.,1.));
#14 = DIRECTION('',(1.,0.,-0.));
#15 = MANIFOLD_SOLID_BREP('',#16);
#16 = CLOSED_SHELL('',(#17,#34,#126,#208,#267,#294));
#17 = ADVANCED_FACE('',(#18),#29,.F.);
#18 = FACE_BOUND('',#19,.F.);
#19 = EDGE_LOOP('',(#20));
#20 = ORIENTED_EDGE('',*,*,#21,.T.);
#21 = EDGE_CURVE('',#22,#22,#24,.T.);
#22 = VERTEX_POINT('',#23);
#23 = CARTESIAN_POINT('',(-1.25,-0.25,-2.));
#24 = CIRCLE('',#25,0.25);
#25 = AXIS2_PLACEMENT_3D('',#26,#27,#28);
#26 = CARTESIAN_POINT('',(-1.25,0.,-2.));
#27 = DIRECTION('',(-0.,0.,1.));
#28 = DIRECTION('',(1.110223024625E-16,-1.,0.));
#29 = PLANE('',#30);
#30 = AXIS2_PLACEMENT_3D('',#31,#32,#33);
#31 = CARTESIAN_POINT('',(-1.25,0.,-2.));
#32 = DIRECTION('',(0.,0.,1.));
#33 = DIRECTION('',(1.110223024625E-16,-1.,0.));
#34 = ADVANCED_FACE('',(#35),#121,.T.);
#35 = FACE_BOUND('',#36,.F.);
#36 = EDGE_LOOP('',(#37,#38,#46,#63,#100,#120));
#37 = ORIENTED_EDGE('',*,*,#21,.F.);
#38 = ORIENTED_EDGE('',*,*,#39,.T.);
#39 = EDGE_CURVE('',#22,#40,#42,.T.);
#40 = VERTEX_POINT('',#41);
#41 = CARTESIAN_POINT('',(-1.25,-0.25,0.679713563033));
#42 = LINE('',#43,#44);
#43 = CARTESIAN_POINT('',(-1.25,-0.25,-2.));
#44 = VECTOR('',#45,1.);
#45 = DIRECTION('',(0.,0.,1.));
#46 = ORIENTED_EDGE('',*,*,#47,.T.);
#47 = EDGE_CURVE('',#40,#48,#50,.T.);
#48 = VERTEX_POINT('',#49);
#49 = CARTESIAN_POINT('',(-1.,2.22044604925E-16,0.308712152522));
#50 = B_SPLINE_CURVE_WITH_KNOTS('',6,(#51,#52,#53,#54,#55,#56,#57,#58,
#59,#60,#61,#62),.UNSPECIFIED.,.F.,.F.,(7,5,7),(0.,0.531526411389,1.
),.UNSPECIFIED.);
#51 = CARTESIAN_POINT('',(-1.25,-0.25,0.679713563033));
#52 = CARTESIAN_POINT('',(-1.213690705694,-0.249999996463,0.656078222025
));
#53 = CARTESIAN_POINT('',(-1.178384554314,-0.243671482979,0.627265109115
));
#54 = CARTESIAN_POINT('',(-1.145174536358,-0.231672708519,0.594919320251
));
#55 = CARTESIAN_POINT('',(-1.114787522476,-0.214687814348,0.560396992972
));
#56 = CARTESIAN_POINT('',(-1.087830296169,-0.193293707977,0.524700794016
));
#57 = CARTESIAN_POINT('',(-1.044726840327,-0.145825867401,0.457025185647
));
#58 = CARTESIAN_POINT('',(-1.027696459605,-0.120628783805,0.425136276502
));
#59 = CARTESIAN_POINT('',(-1.014256378205,-9.289137370699E-02,
0.393700232928));
#60 = CARTESIAN_POINT('',(-1.004865620085,-6.308248786399E-02,
0.363343455927));
#61 = CARTESIAN_POINT('',(-1.,-3.183814022898E-02,0.334765846734));
#62 = CARTESIAN_POINT('',(-1.,2.22044604925E-16,0.308712152522));
#63 = ORIENTED_EDGE('',*,*,#64,.T.);
#64 = EDGE_CURVE('',#48,#65,#67,.T.);
#65 = VERTEX_POINT('',#66);
#66 = CARTESIAN_POINT('',(-1.5,2.22044604925E-16,0.6));
#67 = B_SPLINE_CURVE_WITH_KNOTS('',7,(#68,#69,#70,#71,#72,#73,#74,#75,
#76,#77,#78,#79,#80,#81,#82,#83,#84,#85,#86,#87,#88,#89,#90,#91,#92,
#93,#94,#95,#96,#97,#98,#99),.UNSPECIFIED.,.F.,.F.,(8,6,6,6,6,8),(0.
,0.243133144839,0.498921321529,0.702158567689,0.875902379228,1.),
.UNSPECIFIED.);
#68 = CARTESIAN_POINT('',(-1.,2.344920955513E-16,0.308712152522));
#69 = CARTESIAN_POINT('',(-1.,2.725994250764E-02,0.331019429304));
#70 = CARTESIAN_POINT('',(-1.003467833331,5.409669591259E-02,
0.35512557174));
#71 = CARTESIAN_POINT('',(-1.010209587119,8.003086351388E-02,
0.380606393903));
#72 = CARTESIAN_POINT('',(-1.019973583249,0.104670808662,0.407056843683)
);
#73 = CARTESIAN_POINT('',(-1.032493625769,0.12770172979,0.434099161051)
);
#74 = CARTESIAN_POINT('',(-1.047512692194,0.148863483035,0.461374945527)
);
#75 = CARTESIAN_POINT('',(-1.08296057314,0.187962561603,0.517080273829)
);
#76 = CARTESIAN_POINT('',(-1.103618408137,0.205661879119,0.545477663485)
);
#77 = CARTESIAN_POINT('',(-1.126478408694,0.22074990784,0.57330051856));
#78 = CARTESIAN_POINT('',(-1.151260502783,0.232964098302,0.600104103351)
);
#79 = CARTESIAN_POINT('',(-1.177665253874,0.242024183185,0.625368340258)
);
#80 = CARTESIAN_POINT('',(-1.205339590975,0.247629856338,0.648475359964)
);
#81 = CARTESIAN_POINT('',(-1.256466646705,0.250943749639,0.684783887771)
);
#82 = CARTESIAN_POINT('',(-1.279602556618,0.250036965225,0.699034083304)
);
#83 = CARTESIAN_POINT('',(-1.303006084189,0.246609296749,0.711101984382)
);
#84 = CARTESIAN_POINT('',(-1.326351072179,0.240513590399,0.720561576132)
);
#85 = CARTESIAN_POINT('',(-1.34919509988,0.231663619775,0.726959640812)
);
#86 = CARTESIAN_POINT('',(-1.371010059589,0.220140179497,0.729986813059)
);
#87 = CARTESIAN_POINT('',(-1.408651539444,0.194350029931,0.729289268085)
);
#88 = CARTESIAN_POINT('',(-1.42489647784,0.180718254941,0.726480809165)
);
#89 = CARTESIAN_POINT('',(-1.439700638704,0.165538067379,0.7211581814));
#90 = CARTESIAN_POINT('',(-1.452827161668,0.149090119027,0.713469768366)
);
#91 = CARTESIAN_POINT('',(-1.464145072468,0.131676069381,0.70367132544)
);
#92 = CARTESIAN_POINT('',(-1.473611859331,0.113576949888,0.692061461604)
);
#93 = CARTESIAN_POINT('',(-1.486676982811,8.178682317462E-02,
0.669535017364));
#94 = CARTESIAN_POINT('',(-1.491180909817,6.831000330254E-02,
0.659365487169));
#95 = CARTESIAN_POINT('',(-1.494749488881,5.468272747077E-02,
0.648510261043));
#96 = CARTESIAN_POINT('',(-1.497395881781,4.097752776954E-02,
0.637063141465));
#97 = CARTESIAN_POINT('',(-1.499138918567,2.725887503303E-02,
0.625111555799));
#98 = CARTESIAN_POINT('',(-1.5,1.358338092094E-02,0.612734419613));
#99 = CARTESIAN_POINT('',(-1.5,2.22044604925E-16,0.6));
#100 = ORIENTED_EDGE('',*,*,#101,.T.);
#101 = EDGE_CURVE('',#65,#40,#102,.T.);
#102 = B_SPLINE_CURVE_WITH_KNOTS('',6,(#103,#104,#105,#106,#107,#108,
#109,#110,#111,#112,#113,#114,#115,#116,#117,#118,#119),
.UNSPECIFIED.,.F.,.F.,(7,5,5,7),(0.,0.25819521857,0.620366133715,1.),
.UNSPECIFIED.);
#103 = CARTESIAN_POINT('',(-1.5,2.22044604925E-16,0.6));
#104 = CARTESIAN_POINT('',(-1.5,-1.58409444489E-02,0.614850885421));
#105 = CARTESIAN_POINT('',(-1.498795449246,-3.181073801538E-02,
0.629201967603));
#106 = CARTESIAN_POINT('',(-1.496349864136,-4.782382090013E-02,
0.642933931395));
#107 = CARTESIAN_POINT('',(-1.492625529857,-6.377678928796E-02,
0.655902646525));
#108 = CARTESIAN_POINT('',(-1.487594324573,-7.95476910311E-02,
0.667946635357));
#109 = CARTESIAN_POINT('',(-1.472347304822,-0.116663741197,
0.694251187835));
#110 = CARTESIAN_POINT('',(-1.460854876374,-0.137707255268,
0.707458971154));
#111 = CARTESIAN_POINT('',(-1.446760997614,-0.157704585356,
0.718024508079));
#112 = CARTESIAN_POINT('',(-1.430168757404,-0.176137323315,
0.725412195518));
#113 = CARTESIAN_POINT('',(-1.411436135573,-0.192463209286,
0.729258769364));
#114 = CARTESIAN_POINT('',(-1.369899897804,-0.220878586216,
0.729985108253));
#115 = CARTESIAN_POINT('',(-1.3469244226,-0.2327388993,0.726520329284));
#116 = CARTESIAN_POINT('',(-1.322858498476,-0.241539326155,
0.719254014682));
#117 = CARTESIAN_POINT('',(-1.298381077853,-0.247238911812,
0.708663005913));
#118 = CARTESIAN_POINT('',(-1.273982470846,-0.249999997664,
0.695324819474));
#119 = CARTESIAN_POINT('',(-1.25,-0.25,0.679713563033));
#120 = ORIENTED_EDGE('',*,*,#39,.F.);
#121 = CYLINDRICAL_SURFACE('',#122,0.25);
#122 = AXIS2_PLACEMENT_3D('',#123,#124,#125);
#123 = CARTESIAN_POINT('',(-1.25,0.,-2.));
#124 = DIRECTION('',(-0.,0.,-1.));
#125 = DIRECTION('',(1.110223024625E-16,-1.,0.));
#126 = ADVANCED_FACE('',(#127),#203,.T.);
#127 = FACE_BOUND('',#128,.T.);
#128 = EDGE_LOOP('',(#129,#140,#147,#148,#149,#158,#195,#202));
#129 = ORIENTED_EDGE('',*,*,#130,.F.);
#130 = EDGE_CURVE('',#131,#133,#135,.T.);
#131 = VERTEX_POINT('',#132);
#132 = CARTESIAN_POINT('',(-2.5,2.22044604925E-16,2.6));
#133 = VERTEX_POINT('',#134);
#134 = CARTESIAN_POINT('',(-1.665334536938E-16,-1.25,2.6));
#135 = CIRCLE('',#136,3.125);
#136 = AXIS2_PLACEMENT_3D('',#137,#138,#139);
#137 = CARTESIAN_POINT('',(1.609823385706E-15,1.875,2.6));
#138 = DIRECTION('',(0.,0.,1.));
#139 = DIRECTION('',(-0.8,-0.6,0.));
#140 = ORIENTED_EDGE('',*,*,#141,.T.);
#141 = EDGE_CURVE('',#131,#65,#142,.T.);
#142 = CIRCLE('',#143,2.5);
#143 = AXIS2_PLACEMENT_3D('',#144,#145,#146);
#144 = CARTESIAN_POINT('',(0.,2.22044604925E-16,2.6));
#145 = DIRECTION('',(0.,-1.,0.));
#146 = DIRECTION('',(-1.,0.,0.));
#147 = ORIENTED_EDGE('',*,*,#101,.T.);
#148 = ORIENTED_EDGE('',*,*,#47,.T.);
#149 = ORIENTED_EDGE('',*,*,#150,.T.);
#150 = EDGE_CURVE('',#48,#151,#153,.T.);
#151 = VERTEX_POINT('',#152);
#152 = CARTESIAN_POINT('',(1.,2.22044604925E-16,0.308712152522));
#153 = CIRCLE('',#154,2.5);
#154 = AXIS2_PLACEMENT_3D('',#155,#156,#157);
#155 = CARTESIAN_POINT('',(0.,2.22044604925E-16,2.6));
#156 = DIRECTION('',(0.,-1.,0.));
#157 = DIRECTION('',(-1.,0.,0.));
#158 = ORIENTED_EDGE('',*,*,#159,.T.);
#159 = EDGE_CURVE('',#151,#160,#162,.T.);
#160 = VERTEX_POINT('',#161);
#161 = CARTESIAN_POINT('',(1.5,2.22044604925E-16,0.6));
#162 = B_SPLINE_CURVE_WITH_KNOTS('',7,(#163,#164,#165,#166,#167,#168,
#169,#170,#171,#172,#173,#174,#175,#176,#177,#178,#179,#180,#181,
#182,#183,#184,#185,#186,#187,#188,#189,#190,#191,#192,#193,#194),
.UNSPECIFIED.,.F.,.F.,(8,6,6,6,6,8),(0.,0.243133144839,0.498921321529,
0.702158567689,0.875902379227,1.),.UNSPECIFIED.);
#163 = CARTESIAN_POINT('',(1.,2.498001805407E-16,0.308712152522));
#164 = CARTESIAN_POINT('',(1.,-2.725994250764E-02,0.331019429304));
#165 = CARTESIAN_POINT('',(1.003467833331,-5.409669591258E-02,
0.35512557174));
#166 = CARTESIAN_POINT('',(1.010209587119,-8.003086351389E-02,
0.380606393903));
#167 = CARTESIAN_POINT('',(1.019973583249,-0.104670808662,0.407056843683
));
#168 = CARTESIAN_POINT('',(1.032493625769,-0.12770172979,0.434099161051)
);
#169 = CARTESIAN_POINT('',(1.047512692194,-0.148863483035,0.461374945527
));
#170 = CARTESIAN_POINT('',(1.08296057314,-0.187962561603,0.517080273829)
);
#171 = CARTESIAN_POINT('',(1.103618408137,-0.205661879119,0.545477663485
));
#172 = CARTESIAN_POINT('',(1.126478408694,-0.22074990784,0.57330051856)
);
#173 = CARTESIAN_POINT('',(1.151260502783,-0.232964098302,0.600104103351
));
#174 = CARTESIAN_POINT('',(1.177665253874,-0.242024183185,0.625368340258
));
#175 = CARTESIAN_POINT('',(1.205339590975,-0.247629856338,0.648475359964
));
#176 = CARTESIAN_POINT('',(1.256466646705,-0.250943749639,0.684783887771
));
#177 = CARTESIAN_POINT('',(1.279602556618,-0.250036965225,0.699034083304
));
#178 = CARTESIAN_POINT('',(1.303006084188,-0.24660929675,0.711101984381)
);
#179 = CARTESIAN_POINT('',(1.32635107218,-0.240513590399,0.720561576132)
);
#180 = CARTESIAN_POINT('',(1.349195099879,-0.231663619775,0.726959640812
));
#181 = CARTESIAN_POINT('',(1.37101005959,-0.220140179497,0.729986813059)
);
#182 = CARTESIAN_POINT('',(1.408651539444,-0.194350029931,0.729289268085
));
#183 = CARTESIAN_POINT('',(1.42489647784,-0.180718254941,0.726480809165)
);
#184 = CARTESIAN_POINT('',(1.439700638704,-0.165538067379,0.7211581814)
);
#185 = CARTESIAN_POINT('',(1.452827161668,-0.149090119027,0.713469768366
));
#186 = CARTESIAN_POINT('',(1.464145072468,-0.131676069381,0.70367132544)
);
#187 = CARTESIAN_POINT('',(1.473611859331,-0.113576949888,0.692061461604
));
#188 = CARTESIAN_POINT('',(1.486676982811,-8.178682317461E-02,
0.669535017364));
#189 = CARTESIAN_POINT('',(1.491180909817,-6.831000330256E-02,
0.659365487169));
#190 = CARTESIAN_POINT('',(1.494749488881,-5.468272747078E-02,
0.648510261043));
#191 = CARTESIAN_POINT('',(1.497395881781,-4.097752776952E-02,
0.637063141465));
#192 = CARTESIAN_POINT('',(1.499138918567,-2.725887503302E-02,
0.625111555799));
#193 = CARTESIAN_POINT('',(1.5,-1.358338092095E-02,0.612734419613));
#194 = CARTESIAN_POINT('',(1.5,2.22044604925E-16,0.6));
#195 = ORIENTED_EDGE('',*,*,#196,.T.);
#196 = EDGE_CURVE('',#160,#131,#197,.T.);
#197 = CIRCLE('',#198,2.5);
#198 = AXIS2_PLACEMENT_3D('',#199,#200,#201);
#199 = CARTESIAN_POINT('',(0.,2.22044604925E-16,2.6));
#200 = DIRECTION('',(0.,-1.,0.));
#201 = DIRECTION('',(-1.,0.,0.));
#202 = ORIENTED_EDGE('',*,*,#130,.T.);
#203 = SPHERICAL_SURFACE('',#204,3.125);
#204 = AXIS2_PLACEMENT_3D('',#205,#206,#207);
#205 = CARTESIAN_POINT('',(1.609823385706E-15,1.875,2.6));
#206 = DIRECTION('',(0.,-1.,0.));
#207 = DIRECTION('',(-1.,0.,0.));
#208 = ADVANCED_FACE('',(#209),#262,.T.);
#209 = FACE_BOUND('',#210,.T.);
#210 = EDGE_LOOP('',(#211,#220,#221,#222,#244,#259,#260,#261));
#211 = ORIENTED_EDGE('',*,*,#212,.F.);
#212 = EDGE_CURVE('',#213,#131,#215,.T.);
#213 = VERTEX_POINT('',#214);
#214 = CARTESIAN_POINT('',(-3.944304526105E-31,1.25,2.6));
#215 = CIRCLE('',#216,3.125);
#216 = AXIS2_PLACEMENT_3D('',#217,#218,#219);
#217 = CARTESIAN_POINT('',(2.22044604925E-15,-1.875,2.6));
#218 = DIRECTION('',(0.,0.,1.));
#219 = DIRECTION('',(-7.105427357601E-16,1.,0.));
#220 = ORIENTED_EDGE('',*,*,#212,.T.);
#221 = ORIENTED_EDGE('',*,*,#196,.F.);
#222 = ORIENTED_EDGE('',*,*,#223,.T.);
#223 = EDGE_CURVE('',#160,#224,#226,.T.);
#224 = VERTEX_POINT('',#225);
#225 = CARTESIAN_POINT('',(1.25,0.25,0.679713563033));
#226 = B_SPLINE_CURVE_WITH_KNOTS('',6,(#227,#228,#229,#230,#231,#232,
#233,#234,#235,#236,#237,#238,#239,#240,#241,#242,#243),
.UNSPECIFIED.,.F.,.F.,(7,5,5,7),(0.,0.258195218564,0.620366133709,1.),
.UNSPECIFIED.);
#227 = CARTESIAN_POINT('',(1.5,1.73259755594E-16,0.6));
#228 = CARTESIAN_POINT('',(1.5,1.584094444851E-02,0.61485088542));
#229 = CARTESIAN_POINT('',(1.498795449246,3.18107380146E-02,
0.629201967602));
#230 = CARTESIAN_POINT('',(1.496349864136,4.782382089896E-02,
0.642933931394));
#231 = CARTESIAN_POINT('',(1.492625529857,6.377678928641E-02,
0.655902646524));
#232 = CARTESIAN_POINT('',(1.487594324574,7.954769102918E-02,
0.667946635355));
#233 = CARTESIAN_POINT('',(1.472347304823,0.116663741195,0.694251187833)
);
#234 = CARTESIAN_POINT('',(1.460854876375,0.137707255266,0.707458971153)
);
#235 = CARTESIAN_POINT('',(1.446760997616,0.157704585354,0.718024508078)
);
#236 = CARTESIAN_POINT('',(1.430168757406,0.176137323313,0.725412195518)
);
#237 = CARTESIAN_POINT('',(1.411436135575,0.192463209284,0.729258769364)
);
#238 = CARTESIAN_POINT('',(1.369899897806,0.220878586215,0.729985108253)
);
#239 = CARTESIAN_POINT('',(1.346924422601,0.232738899299,0.726520329284)
);
#240 = CARTESIAN_POINT('',(1.322858498478,0.241539326155,0.719254014682)
);
#241 = CARTESIAN_POINT('',(1.298381077853,0.247238911812,0.708663005913)
);
#242 = CARTESIAN_POINT('',(1.273982470847,0.249999997664,0.695324819475)
);
#243 = CARTESIAN_POINT('',(1.25,0.25,0.679713563033));
#244 = ORIENTED_EDGE('',*,*,#245,.T.);
#245 = EDGE_CURVE('',#224,#151,#246,.T.);
#246 = B_SPLINE_CURVE_WITH_KNOTS('',6,(#247,#248,#249,#250,#251,#252,
#253,#254,#255,#256,#257,#258),.UNSPECIFIED.,.F.,.F.,(7,5,7),(0.,
0.531526411389,1.),.UNSPECIFIED.);
#247 = CARTESIAN_POINT('',(1.25,0.25,0.679713563033));
#248 = CARTESIAN_POINT('',(1.213690705694,0.249999996463,0.656078222025)
);
#249 = CARTESIAN_POINT('',(1.178384554314,0.243671482979,0.627265109115)
);
#250 = CARTESIAN_POINT('',(1.145174536358,0.231672708519,0.594919320251)
);
#251 = CARTESIAN_POINT('',(1.114787522476,0.214687814348,0.560396992972)
);
#252 = CARTESIAN_POINT('',(1.087830296169,0.193293707977,0.524700794016)
);
#253 = CARTESIAN_POINT('',(1.044726840327,0.145825867401,0.457025185647)
);
#254 = CARTESIAN_POINT('',(1.027696459605,0.120628783805,0.425136276502)
);
#255 = CARTESIAN_POINT('',(1.014256378205,9.289137370706E-02,
0.393700232928));
#256 = CARTESIAN_POINT('',(1.004865620085,6.308248786394E-02,
0.363343455927));
#257 = CARTESIAN_POINT('',(1.,3.1838140229E-02,0.334765846734));
#258 = CARTESIAN_POINT('',(1.,2.22044604925E-16,0.308712152522));
#259 = ORIENTED_EDGE('',*,*,#150,.F.);
#260 = ORIENTED_EDGE('',*,*,#64,.T.);
#261 = ORIENTED_EDGE('',*,*,#141,.F.);
#262 = SPHERICAL_SURFACE('',#263,3.125);
#263 = AXIS2_PLACEMENT_3D('',#264,#265,#266);
#264 = CARTESIAN_POINT('',(2.22044604925E-15,-1.875,2.6));
#265 = DIRECTION('',(0.,-1.,0.));
#266 = DIRECTION('',(-1.,0.,0.));
#267 = ADVANCED_FACE('',(#268),#289,.T.);
#268 = FACE_BOUND('',#269,.F.);
#269 = EDGE_LOOP('',(#270,#279,#285,#286,#287,#288));
#270 = ORIENTED_EDGE('',*,*,#271,.F.);
#271 = EDGE_CURVE('',#272,#272,#274,.T.);
#272 = VERTEX_POINT('',#273);
#273 = CARTESIAN_POINT('',(1.25,0.25,-2.));
#274 = CIRCLE('',#275,0.25);
#275 = AXIS2_PLACEMENT_3D('',#276,#277,#278);
#276 = CARTESIAN_POINT('',(1.25,0.,-2.));
#277 = DIRECTION('',(0.,-0.,1.));
#278 = DIRECTION('',(1.144237745222E-17,1.,0.));
#279 = ORIENTED_EDGE('',*,*,#280,.T.);
#280 = EDGE_CURVE('',#272,#224,#281,.T.);
#281 = LINE('',#282,#283);
#282 = CARTESIAN_POINT('',(1.25,0.25,-2.));
#283 = VECTOR('',#284,1.);
#284 = DIRECTION('',(0.,0.,1.));
#285 = ORIENTED_EDGE('',*,*,#245,.T.);
#286 = ORIENTED_EDGE('',*,*,#159,.T.);
#287 = ORIENTED_EDGE('',*,*,#223,.T.);
#288 = ORIENTED_EDGE('',*,*,#280,.F.);
#289 = CYLINDRICAL_SURFACE('',#290,0.25);
#290 = AXIS2_PLACEMENT_3D('',#291,#292,#293);
#291 = CARTESIAN_POINT('',(1.25,0.,-2.));
#292 = DIRECTION('',(0.,-0.,-1.));
#293 = DIRECTION('',(1.144237745222E-17,1.,0.));
#294 = ADVANCED_FACE('',(#295),#298,.F.);
#295 = FACE_BOUND('',#296,.F.);
#296 = EDGE_LOOP('',(#297));
#297 = ORIENTED_EDGE('',*,*,#271,.T.);
#298 = PLANE('',#299);
#299 = AXIS2_PLACEMENT_3D('',#300,#301,#302);
#300 = CARTESIAN_POINT('',(1.25,0.,-2.));
#301 = DIRECTION('',(0.,0.,1.));
#302 = DIRECTION('',(1.144237745222E-17,1.,0.));
#303 = ( GEOMETRIC_REPRESENTATION_CONTEXT(3)
GLOBAL_UNCERTAINTY_ASSIGNED_CONTEXT((#307)) GLOBAL_UNIT_ASSIGNED_CONTEXT
((#304,#305,#306)) REPRESENTATION_CONTEXT('Context #1',
'3D Context with UNIT and UNCERTAINTY') );
#304 = ( LENGTH_UNIT() NAMED_UNIT(*) SI_UNIT(.MILLI.,.METRE.) );
#305 = ( NAMED_UNIT(*) PLANE_ANGLE_UNIT() SI_UNIT($,.RADIAN.) );
#306 = ( NAMED_UNIT(*) SI_UNIT($,.STERADIAN.) SOLID_ANGLE_UNIT() );
#307 = UNCERTAINTY_MEASURE_WITH_UNIT(LENGTH_MEASURE(2.E-07),#304,
'distance_accuracy_value','confusion accuracy');
#308 = PRODUCT_TYPE('part',$,(#7));
#309 = MECHANICAL_DESIGN_GEOMETRIC_PRESENTATION_REPRESENTATION('',(#310,
#318,#325,#333,#340,#347),#303);
#310 = STYLED_ITEM('color',(#311),#17);
#311 = PRESENTATION_STYLE_ASSIGNMENT((#312));
#312 = SURFACE_STYLE_USAGE(.BOTH.,#313);
#313 = SURFACE_SIDE_STYLE('',(#314));
#314 = SURFACE_STYLE_FILL_AREA(#315);
#315 = FILL_AREA_STYLE('',(#316));
#316 = FILL_AREA_STYLE_COLOUR('',#317);
#317 = COLOUR_RGB('',0.824000000954,0.819999992847,0.78100001812);
#318 = STYLED_ITEM('color',(#319),#34);
#319 = PRESENTATION_STYLE_ASSIGNMENT((#320));
#320 = SURFACE_STYLE_USAGE(.BOTH.,#321);
#321 = SURFACE_SIDE_STYLE('',(#322));
#322 = SURFACE_STYLE_FILL_AREA(#323);
#323 = FILL_AREA_STYLE('',(#324));
#324 = FILL_AREA_STYLE_COLOUR('',#317);
#325 = STYLED_ITEM('color',(#326),#126);
#326 = PRESENTATION_STYLE_ASSIGNMENT((#327));
#327 = SURFACE_STYLE_USAGE(.BOTH.,#328);
#328 = SURFACE_SIDE_STYLE('',(#329));
#329 = SURFACE_STYLE_FILL_AREA(#330);
#330 = FILL_AREA_STYLE('',(#331));
#331 = FILL_AREA_STYLE_COLOUR('',#332);
#332 = COLOUR_RGB('',0.809000015259,0.425999999046,0.148000001907);
#333 = STYLED_ITEM('color',(#334),#208);
#334 = PRESENTATION_STYLE_ASSIGNMENT((#335));
#335 = SURFACE_STYLE_USAGE(.BOTH.,#336);
#336 = SURFACE_SIDE_STYLE('',(#337));
#337 = SURFACE_STYLE_FILL_AREA(#338);
#338 = FILL_AREA_STYLE('',(#339));
#339 = FILL_AREA_STYLE_COLOUR('',#332);
#340 = STYLED_ITEM('color',(#341),#267);
#341 = PRESENTATION_STYLE_ASSIGNMENT((#342));
#342 = SURFACE_STYLE_USAGE(.BOTH.,#343);
#343 = SURFACE_SIDE_STYLE('',(#344));
#344 = SURFACE_STYLE_FILL_AREA(#345);
#345 = FILL_AREA_STYLE('',(#346));
#346 = FILL_AREA_STYLE_COLOUR('',#317);
#347 = STYLED_ITEM('color',(#348),#294);
#348 = PRESENTATION_STYLE_ASSIGNMENT((#349));
#349 = SURFACE_STYLE_USAGE(.BOTH.,#350);
#350 = SURFACE_SIDE_STYLE('',(#351));
#351 = SURFACE_STYLE_FILL_AREA(#352);
#352 = FILL_AREA_STYLE('',(#353));
#353 = FILL_AREA_STYLE_COLOUR('',#317);
ENDSEC;
END-ISO-10303-21;
