ISO-10303-21;
HEADER;
/****************************************************************
 * Generated by software with PDElib inside                    *
 * PDElib Version v51a, created Wed 11/30/2011                  *
 * ITI Transcendata (http://www.transcendata.com/)              *
 ****************************************************************/
FILE_DESCRIPTION((''),'2;1');
FILE_NAME('E:\\traco_ten20_inventor\\traco.stp','2017-02-17T11:45:32',('belohrad'),(''),'Autodesk Inventor 2013','Autodesk Inventor 2013','');
FILE_SCHEMA(('AUTOMOTIVE_DESIGN { 1 0 10303 214 1 1 1 1 }'));
ENDSEC;
DATA;
#5=APPLICATION_CONTEXT('automotive design');
#6=APPLICATION_PROTOCOL_DEFINITION('International Standard','automotive_design',2001,#5);
#7=PRODUCT_CONTEXT('',#5,'mechanical');
#8=PRODUCT('traco','traco',$,(#7));
#9=PRODUCT_RELATED_PRODUCT_CATEGORY('part',$,(#8));
#10=PRODUCT_DEFINITION_FORMATION('',$,#8);
#11=PRODUCT_DEFINITION_CONTEXT('part definition',#5,'design');
#12=PRODUCT_DEFINITION('',$,#10,#11);
#18=(NAMED_UNIT(*)PLANE_ANGLE_UNIT()SI_UNIT($,.RADIAN.));
#19=DIMENSIONAL_EXPONENTS(0.0,0.0,0.0,0.0,0.0,0.0,0.0);
#20=PLANE_ANGLE_MEASURE_WITH_UNIT(PLANE_ANGLE_MEASURE(0.0174532925),#18);
#24=(CONVERSION_BASED_UNIT('DEGREE',#20)NAMED_UNIT(#19)PLANE_ANGLE_UNIT());
#28=(NAMED_UNIT(*)SI_UNIT($,.STERADIAN.)SOLID_ANGLE_UNIT());
#32=(LENGTH_UNIT()NAMED_UNIT(*)SI_UNIT(.MILLI.,.METRE.));
#34=UNCERTAINTY_MEASURE_WITH_UNIT(LENGTH_MEASURE(0.01),#32,'DISTANCE_ACCURACY_VALUE','');
#36=(GEOMETRIC_REPRESENTATION_CONTEXT(3)GLOBAL_UNCERTAINTY_ASSIGNED_CONTEXT((#34))GLOBAL_UNIT_ASSIGNED_CONTEXT((#24,#28,#32))REPRESENTATION_CONTEXT('None','None'));
#37=AXIS2_PLACEMENT_3D('',#38,#39,#40);
#38=CARTESIAN_POINT('',(0.0,0.0,0.0));
#39=DIRECTION('',(0.0,0.0,1.0));
#40=DIRECTION('',(1.0,0.0,0.0));
#41=SHAPE_REPRESENTATION('',(#37),#36);
#42=PRODUCT_DEFINITION_SHAPE('','',#12);
#43=SHAPE_DEFINITION_REPRESENTATION(#42,#41);
#49=(NAMED_UNIT(*)PLANE_ANGLE_UNIT()SI_UNIT($,.RADIAN.));
#50=DIMENSIONAL_EXPONENTS(0.0,0.0,0.0,0.0,0.0,0.0,0.0);
#51=PLANE_ANGLE_MEASURE_WITH_UNIT(PLANE_ANGLE_MEASURE(0.0174532925),#49);
#55=(CONVERSION_BASED_UNIT('DEGREE',#51)NAMED_UNIT(#50)PLANE_ANGLE_UNIT());
#59=(NAMED_UNIT(*)SI_UNIT($,.STERADIAN.)SOLID_ANGLE_UNIT());
#63=(LENGTH_UNIT()NAMED_UNIT(*)SI_UNIT(.MILLI.,.METRE.));
#65=UNCERTAINTY_MEASURE_WITH_UNIT(LENGTH_MEASURE(0.000001),#63,'DISTANCE_ACCURACY_VALUE','');
#67=(GEOMETRIC_REPRESENTATION_CONTEXT(3)GLOBAL_UNCERTAINTY_ASSIGNED_CONTEXT((#65))GLOBAL_UNIT_ASSIGNED_CONTEXT((#55,#59,#63))REPRESENTATION_CONTEXT('','3D'));
#68=CARTESIAN_POINT('',(10.199999999999999,0.0,5.551115E-016));
#69=DIRECTION('',(0.0,-1.0,0.0));
#70=DIRECTION('',(-1.0,0.0,0.0));
#71=AXIS2_PLACEMENT_3D('',#68,#69,#70);
#72=CYLINDRICAL_SURFACE('',#71,0.5);
#73=CARTESIAN_POINT('',(10.700000000000001,-6.000000000000001,6.163439E-016));
#74=VERTEX_POINT('',#73);
#75=CARTESIAN_POINT('',(10.199999999999999,-6.000000000000001,5.551115E-016));
#76=DIRECTION('',(0.0,-1.0,0.0));
#77=DIRECTION('',(-1.0,0.0,0.0));
#78=AXIS2_PLACEMENT_3D('',#75,#76,#77);
#79=CIRCLE('',#78,0.5);
#80=EDGE_CURVE('',#74,#74,#79,.T.);
#81=ORIENTED_EDGE('',*,*,#80,.F.);
#82=EDGE_LOOP('',(#81));
#83=FACE_OUTER_BOUND('',#82,.T.);
#84=CARTESIAN_POINT('',(10.700000000000001,0.0,6.163439E-016));
#85=VERTEX_POINT('',#84);
#86=CARTESIAN_POINT('',(10.199999999999999,0.0,5.551115E-016));
#87=DIRECTION('',(0.0,1.0,0.0));
#88=DIRECTION('',(-1.0,0.0,0.0));
#89=AXIS2_PLACEMENT_3D('',#86,#87,#88);
#90=CIRCLE('',#89,0.5);
#91=EDGE_CURVE('',#85,#85,#90,.T.);
#92=ORIENTED_EDGE('',*,*,#91,.F.);
#93=EDGE_LOOP('',(#92));
#94=FACE_BOUND('',#93,.T.);
#95=ADVANCED_FACE('',(#83,#94),#72,.T.);
#96=CARTESIAN_POINT('',(10.199999999999999,-6.000000000000001,5.623395E-016));
#97=DIRECTION('',(0.0,1.0,0.0));
#98=DIRECTION('',(0.0,0.0,1.0));
#99=AXIS2_PLACEMENT_3D('',#96,#97,#98);
#100=PLANE('',#99);
#101=ORIENTED_EDGE('',*,*,#80,.T.);
#102=EDGE_LOOP('',(#101));
#103=FACE_OUTER_BOUND('',#102,.T.);
#104=ADVANCED_FACE('',(#103),#100,.F.);
#105=CARTESIAN_POINT('',(-10.120000000000001,0.0,-10.199999999999999));
#106=DIRECTION('',(0.0,-1.0,0.0));
#107=DIRECTION('',(-1.0,0.0,0.0));
#108=AXIS2_PLACEMENT_3D('',#105,#106,#107);
#109=CYLINDRICAL_SURFACE('',#108,0.5);
#110=CARTESIAN_POINT('',(-9.619999999999999,-6.000000000000001,-10.199999999999999));
#111=VERTEX_POINT('',#110);
#112=CARTESIAN_POINT('',(-10.120000000000001,-6.000000000000001,-10.199999999999999));
#113=DIRECTION('',(0.0,-1.0,0.0));
#114=DIRECTION('',(-1.0,0.0,0.0));
#115=AXIS2_PLACEMENT_3D('',#112,#113,#114);
#116=CIRCLE('',#115,0.5);
#117=EDGE_CURVE('',#111,#111,#116,.T.);
#118=ORIENTED_EDGE('',*,*,#117,.F.);
#119=EDGE_LOOP('',(#118));
#120=FACE_OUTER_BOUND('',#119,.T.);
#121=CARTESIAN_POINT('',(-9.619999999999999,0.0,-10.199999999999999));
#122=VERTEX_POINT('',#121);
#123=CARTESIAN_POINT('',(-10.120000000000001,0.0,-10.199999999999999));
#124=DIRECTION('',(0.0,1.0,0.0));
#125=DIRECTION('',(-1.0,0.0,0.0));
#126=AXIS2_PLACEMENT_3D('',#123,#124,#125);
#127=CIRCLE('',#126,0.5);
#128=EDGE_CURVE('',#122,#122,#127,.T.);
#129=ORIENTED_EDGE('',*,*,#128,.F.);
#130=EDGE_LOOP('',(#129));
#131=FACE_BOUND('',#130,.T.);
#132=ADVANCED_FACE('',(#120,#131),#109,.T.);
#133=CARTESIAN_POINT('',(-10.120000000000001,-6.000000000000001,-10.199999999999999));
#134=DIRECTION('',(0.0,1.0,0.0));
#135=DIRECTION('',(0.0,0.0,1.0));
#136=AXIS2_PLACEMENT_3D('',#133,#134,#135);
#137=PLANE('',#136);
#138=ORIENTED_EDGE('',*,*,#117,.T.);
#139=EDGE_LOOP('',(#138));
#140=FACE_OUTER_BOUND('',#139,.T.);
#141=ADVANCED_FACE('',(#140),#137,.F.);
#142=CARTESIAN_POINT('',(-10.120000000000001,0.0,2.5));
#143=DIRECTION('',(0.0,-1.0,0.0));
#144=DIRECTION('',(-1.0,0.0,0.0));
#145=AXIS2_PLACEMENT_3D('',#142,#143,#144);
#146=CYLINDRICAL_SURFACE('',#145,0.5);
#147=CARTESIAN_POINT('',(-9.619999999999999,-6.000000000000001,2.5));
#148=VERTEX_POINT('',#147);
#149=CARTESIAN_POINT('',(-10.120000000000001,-6.000000000000001,2.5));
#150=DIRECTION('',(0.0,-1.0,0.0));
#151=DIRECTION('',(-1.0,0.0,0.0));
#152=AXIS2_PLACEMENT_3D('',#149,#150,#151);
#153=CIRCLE('',#152,0.5);
#154=EDGE_CURVE('',#148,#148,#153,.T.);
#155=ORIENTED_EDGE('',*,*,#154,.F.);
#156=EDGE_LOOP('',(#155));
#157=FACE_OUTER_BOUND('',#156,.T.);
#158=CARTESIAN_POINT('',(-9.619999999999999,0.0,2.5));
#159=VERTEX_POINT('',#158);
#160=CARTESIAN_POINT('',(-10.120000000000001,0.0,2.5));
#161=DIRECTION('',(0.0,1.0,0.0));
#162=DIRECTION('',(-1.0,0.0,0.0));
#163=AXIS2_PLACEMENT_3D('',#160,#161,#162);
#164=CIRCLE('',#163,0.5);
#165=EDGE_CURVE('',#159,#159,#164,.T.);
#166=ORIENTED_EDGE('',*,*,#165,.F.);
#167=EDGE_LOOP('',(#166));
#168=FACE_BOUND('',#167,.T.);
#169=ADVANCED_FACE('',(#157,#168),#146,.T.);
#170=CARTESIAN_POINT('',(-10.120000000000001,-6.000000000000001,2.5));
#171=DIRECTION('',(0.0,1.0,0.0));
#172=DIRECTION('',(0.0,0.0,1.0));
#173=AXIS2_PLACEMENT_3D('',#170,#171,#172);
#174=PLANE('',#173);
#175=ORIENTED_EDGE('',*,*,#154,.T.);
#176=EDGE_LOOP('',(#175));
#177=FACE_OUTER_BOUND('',#176,.T.);
#178=ADVANCED_FACE('',(#177),#174,.F.);
#179=CARTESIAN_POINT('',(-10.120000000000001,0.0,-2.58));
#180=DIRECTION('',(0.0,-1.0,0.0));
#181=DIRECTION('',(-1.0,0.0,0.0));
#182=AXIS2_PLACEMENT_3D('',#179,#180,#181);
#183=CYLINDRICAL_SURFACE('',#182,0.500000000000001);
#184=CARTESIAN_POINT('',(-9.619999999999999,-6.000000000000001,-2.58));
#185=VERTEX_POINT('',#184);
#186=CARTESIAN_POINT('',(-10.120000000000001,-6.000000000000001,-2.58));
#187=DIRECTION('',(0.0,-1.0,0.0));
#188=DIRECTION('',(-1.0,0.0,0.0));
#189=AXIS2_PLACEMENT_3D('',#186,#187,#188);
#190=CIRCLE('',#189,0.500000000000001);
#191=EDGE_CURVE('',#185,#185,#190,.T.);
#192=ORIENTED_EDGE('',*,*,#191,.F.);
#193=EDGE_LOOP('',(#192));
#194=FACE_OUTER_BOUND('',#193,.T.);
#195=CARTESIAN_POINT('',(-9.619999999999999,0.0,-2.58));
#196=VERTEX_POINT('',#195);
#197=CARTESIAN_POINT('',(-10.120000000000001,0.0,-2.58));
#198=DIRECTION('',(0.0,1.0,0.0));
#199=DIRECTION('',(-1.0,0.0,0.0));
#200=AXIS2_PLACEMENT_3D('',#197,#198,#199);
#201=CIRCLE('',#200,0.500000000000001);
#202=EDGE_CURVE('',#196,#196,#201,.T.);
#203=ORIENTED_EDGE('',*,*,#202,.F.);
#204=EDGE_LOOP('',(#203));
#205=FACE_BOUND('',#204,.T.);
#206=ADVANCED_FACE('',(#194,#205),#183,.T.);
#207=CARTESIAN_POINT('',(-10.120000000000001,-6.000000000000001,-2.58));
#208=DIRECTION('',(0.0,1.0,0.0));
#209=DIRECTION('',(0.0,0.0,1.0));
#210=AXIS2_PLACEMENT_3D('',#207,#208,#209);
#211=PLANE('',#210);
#212=ORIENTED_EDGE('',*,*,#191,.T.);
#213=EDGE_LOOP('',(#212));
#214=FACE_OUTER_BOUND('',#213,.T.);
#215=ADVANCED_FACE('',(#214),#211,.F.);
#216=CARTESIAN_POINT('',(10.199999999999999,0.0,10.16));
#217=DIRECTION('',(0.0,-1.0,0.0));
#218=DIRECTION('',(-1.0,0.0,0.0));
#219=AXIS2_PLACEMENT_3D('',#216,#217,#218);
#220=CYLINDRICAL_SURFACE('',#219,0.5);
#221=CARTESIAN_POINT('',(10.700000000000001,-6.000000000000001,10.16));
#222=VERTEX_POINT('',#221);
#223=CARTESIAN_POINT('',(10.199999999999999,-6.000000000000001,10.16));
#224=DIRECTION('',(0.0,-1.0,0.0));
#225=DIRECTION('',(-1.0,0.0,0.0));
#226=AXIS2_PLACEMENT_3D('',#223,#224,#225);
#227=CIRCLE('',#226,0.5);
#228=EDGE_CURVE('',#222,#222,#227,.T.);
#229=ORIENTED_EDGE('',*,*,#228,.F.);
#230=EDGE_LOOP('',(#229));
#231=FACE_OUTER_BOUND('',#230,.T.);
#232=CARTESIAN_POINT('',(10.700000000000001,0.0,10.16));
#233=VERTEX_POINT('',#232);
#234=CARTESIAN_POINT('',(10.199999999999999,0.0,10.16));
#235=DIRECTION('',(0.0,1.0,0.0));
#236=DIRECTION('',(-1.0,0.0,0.0));
#237=AXIS2_PLACEMENT_3D('',#234,#235,#236);
#238=CIRCLE('',#237,0.5);
#239=EDGE_CURVE('',#233,#233,#238,.T.);
#240=ORIENTED_EDGE('',*,*,#239,.F.);
#241=EDGE_LOOP('',(#240));
#242=FACE_BOUND('',#241,.T.);
#243=ADVANCED_FACE('',(#231,#242),#220,.T.);
#244=CARTESIAN_POINT('',(10.200000000000003,-6.000000000000001,10.16));
#245=DIRECTION('',(0.0,1.0,0.0));
#246=DIRECTION('',(0.0,0.0,1.0));
#247=AXIS2_PLACEMENT_3D('',#244,#245,#246);
#248=PLANE('',#247);
#249=ORIENTED_EDGE('',*,*,#228,.T.);
#250=EDGE_LOOP('',(#249));
#251=FACE_OUTER_BOUND('',#250,.T.);
#252=ADVANCED_FACE('',(#251),#248,.F.);
#253=CARTESIAN_POINT('',(10.199999999999999,0.0,-10.16));
#254=DIRECTION('',(0.0,-1.0,0.0));
#255=DIRECTION('',(-1.0,0.0,0.0));
#256=AXIS2_PLACEMENT_3D('',#253,#254,#255);
#257=CYLINDRICAL_SURFACE('',#256,0.5);
#258=CARTESIAN_POINT('',(10.700000000000001,-6.000000000000001,-10.16));
#259=VERTEX_POINT('',#258);
#260=CARTESIAN_POINT('',(10.199999999999999,-6.000000000000001,-10.16));
#261=DIRECTION('',(0.0,-1.0,0.0));
#262=DIRECTION('',(-1.0,0.0,0.0));
#263=AXIS2_PLACEMENT_3D('',#260,#261,#262);
#264=CIRCLE('',#263,0.5);
#265=EDGE_CURVE('',#259,#259,#264,.T.);
#266=ORIENTED_EDGE('',*,*,#265,.F.);
#267=EDGE_LOOP('',(#266));
#268=FACE_OUTER_BOUND('',#267,.T.);
#269=CARTESIAN_POINT('',(10.700000000000001,0.0,-10.16));
#270=VERTEX_POINT('',#269);
#271=CARTESIAN_POINT('',(10.199999999999999,0.0,-10.16));
#272=DIRECTION('',(0.0,1.0,0.0));
#273=DIRECTION('',(-1.0,0.0,0.0));
#274=AXIS2_PLACEMENT_3D('',#271,#272,#273);
#275=CIRCLE('',#274,0.5);
#276=EDGE_CURVE('',#270,#270,#275,.T.);
#277=ORIENTED_EDGE('',*,*,#276,.F.);
#278=EDGE_LOOP('',(#277));
#279=FACE_BOUND('',#278,.T.);
#280=ADVANCED_FACE('',(#268,#279),#257,.T.);
#281=CARTESIAN_POINT('',(10.199999999999999,-6.000000000000001,-10.16));
#282=DIRECTION('',(0.0,1.0,0.0));
#283=DIRECTION('',(0.0,0.0,1.0));
#284=AXIS2_PLACEMENT_3D('',#281,#282,#283);
#285=PLANE('',#284);
#286=ORIENTED_EDGE('',*,*,#265,.T.);
#287=EDGE_LOOP('',(#286));
#288=FACE_OUTER_BOUND('',#287,.T.);
#289=ADVANCED_FACE('',(#288),#285,.F.);
#290=CARTESIAN_POINT('',(12.699999999999999,8.200000000000001,-10.700000000000001));
#291=DIRECTION('',(-1.0,0.0,0.0));
#292=DIRECTION('',(0.0,0.707106781186548,-0.707106781186547));
#293=AXIS2_PLACEMENT_3D('',#290,#291,#292);
#294=CYLINDRICAL_SURFACE('',#293,2.0);
#295=CARTESIAN_POINT('',(-23.399999999999999,10.199999999999999,-10.700000000000001));
#296=VERTEX_POINT('',#295);
#297=CARTESIAN_POINT('',(23.399999999999999,10.199999999999999,-10.700000000000001));
#298=VERTEX_POINT('',#297);
#299=CARTESIAN_POINT('',(-23.400000000000002,10.199999999999999,-10.700000000000001));
#300=DIRECTION('',(1.0,0.0,0.0));
#301=VECTOR('',#300,46.799999999999997);
#302=LINE('',#299,#301);
#303=EDGE_CURVE('',#296,#298,#302,.T.);
#304=ORIENTED_EDGE('',*,*,#303,.T.);
#305=CARTESIAN_POINT('',(25.399999999999999,8.200000000000001,-12.699999999999999));
#306=VERTEX_POINT('',#305);
#307=CARTESIAN_POINT('',(23.399999999999999,8.200000000000001,-10.700000000000001));
#308=DIRECTION('',(-0.707106781186547,0.0,-0.707106781186548));
#309=DIRECTION('',(0.707106781186548,0.0,-0.707106781186547));
#310=AXIS2_PLACEMENT_3D('',#307,#308,#309);
#311=ELLIPSE('',#310,2.828427124746193,2.000000000000001);
#312=EDGE_CURVE('',#298,#306,#311,.T.);
#313=ORIENTED_EDGE('',*,*,#312,.T.);
#314=CARTESIAN_POINT('',(-25.399999999999999,8.200000000000001,-12.699999999999999));
#315=VERTEX_POINT('',#314);
#316=CARTESIAN_POINT('',(25.399999999999999,8.200000000000001,-12.699999999999999));
#317=DIRECTION('',(-1.0,0.0,0.0));
#318=VECTOR('',#317,50.799999999999997);
#319=LINE('',#316,#318);
#320=EDGE_CURVE('',#306,#315,#319,.T.);
#321=ORIENTED_EDGE('',*,*,#320,.T.);
#322=CARTESIAN_POINT('',(-23.399999999999999,8.200000000000001,-10.700000000000001));
#323=DIRECTION('',(-0.707106781186547,0.0,0.707106781186548));
#324=DIRECTION('',(-0.707106781186548,0.0,-0.707106781186547));
#325=AXIS2_PLACEMENT_3D('',#322,#323,#324);
#326=ELLIPSE('',#325,2.82842712474619,2.000000000000001);
#327=EDGE_CURVE('',#296,#315,#326,.T.);
#328=ORIENTED_EDGE('',*,*,#327,.F.);
#329=EDGE_LOOP('',(#304,#313,#321,#328));
#330=FACE_OUTER_BOUND('',#329,.T.);
#331=ADVANCED_FACE('',(#330),#294,.T.);
#332=CARTESIAN_POINT('',(23.399999999999999,8.200000000000001,6.35));
#333=DIRECTION('',(0.0,0.0,-1.0));
#334=DIRECTION('',(0.707106781186548,0.707106781186547,0.0));
#335=AXIS2_PLACEMENT_3D('',#332,#333,#334);
#336=CYLINDRICAL_SURFACE('',#335,2.0);
#337=CARTESIAN_POINT('',(23.399999999999999,10.199999999999999,10.700000000000001));
#338=VERTEX_POINT('',#337);
#339=CARTESIAN_POINT('',(23.399999999999999,10.199999999999999,-10.700000000000001));
#340=DIRECTION('',(0.0,0.0,1.0));
#341=VECTOR('',#340,21.399999999999999);
#342=LINE('',#339,#341);
#343=EDGE_CURVE('',#298,#338,#342,.T.);
#344=ORIENTED_EDGE('',*,*,#343,.T.);
#345=CARTESIAN_POINT('',(25.399999999999999,8.200000000000001,12.699999999999999));
#346=VERTEX_POINT('',#345);
#347=CARTESIAN_POINT('',(23.399999999999999,8.200000000000001,10.700000000000001));
#348=DIRECTION('',(0.707106781186547,0.0,-0.707106781186548));
#349=DIRECTION('',(0.707106781186548,0.0,0.707106781186547));
#350=AXIS2_PLACEMENT_3D('',#347,#348,#349);
#351=ELLIPSE('',#350,2.82842712474619,2.000000000000001);
#352=EDGE_CURVE('',#338,#346,#351,.T.);
#353=ORIENTED_EDGE('',*,*,#352,.T.);
#354=CARTESIAN_POINT('',(25.399999999999999,8.200000000000001,12.699999999999999));
#355=DIRECTION('',(0.0,0.0,-1.0));
#356=VECTOR('',#355,25.399999999999999);
#357=LINE('',#354,#356);
#358=EDGE_CURVE('',#346,#306,#357,.T.);
#359=ORIENTED_EDGE('',*,*,#358,.T.);
#360=ORIENTED_EDGE('',*,*,#312,.F.);
#361=EDGE_LOOP('',(#344,#353,#359,#360));
#362=FACE_OUTER_BOUND('',#361,.T.);
#363=ADVANCED_FACE('',(#362),#336,.T.);
#364=CARTESIAN_POINT('',(-12.699999999999999,8.200000000000001,10.700000000000001));
#365=DIRECTION('',(1.0,0.0,0.0));
#366=DIRECTION('',(0.0,0.707106781186548,0.707106781186547));
#367=AXIS2_PLACEMENT_3D('',#364,#365,#366);
#368=CYLINDRICAL_SURFACE('',#367,2.0);
#369=CARTESIAN_POINT('',(-23.399999999999999,10.199999999999999,10.700000000000001));
#370=VERTEX_POINT('',#369);
#371=CARTESIAN_POINT('',(23.400000000000002,10.199999999999999,10.700000000000001));
#372=DIRECTION('',(-1.0,0.0,0.0));
#373=VECTOR('',#372,46.799999999999997);
#374=LINE('',#371,#373);
#375=EDGE_CURVE('',#338,#370,#374,.T.);
#376=ORIENTED_EDGE('',*,*,#375,.T.);
#377=CARTESIAN_POINT('',(-25.399999999999999,8.200000000000001,12.699999999999999));
#378=VERTEX_POINT('',#377);
#379=CARTESIAN_POINT('',(-23.399999999999999,8.200000000000001,10.700000000000001));
#380=DIRECTION('',(0.707106781186547,0.0,0.707106781186548));
#381=DIRECTION('',(-0.707106781186548,0.0,0.707106781186547));
#382=AXIS2_PLACEMENT_3D('',#379,#380,#381);
#383=ELLIPSE('',#382,2.828427124746193,2.000000000000001);
#384=EDGE_CURVE('',#370,#378,#383,.T.);
#385=ORIENTED_EDGE('',*,*,#384,.T.);
#386=CARTESIAN_POINT('',(-25.399999999999999,8.200000000000001,12.699999999999999));
#387=DIRECTION('',(1.0,0.0,0.0));
#388=VECTOR('',#387,50.799999999999997);
#389=LINE('',#386,#388);
#390=EDGE_CURVE('',#378,#346,#389,.T.);
#391=ORIENTED_EDGE('',*,*,#390,.T.);
#392=ORIENTED_EDGE('',*,*,#352,.F.);
#393=EDGE_LOOP('',(#376,#385,#391,#392));
#394=FACE_OUTER_BOUND('',#393,.T.);
#395=ADVANCED_FACE('',(#394),#368,.T.);
#396=CARTESIAN_POINT('',(-23.399999999999999,8.200000000000001,-6.35));
#397=DIRECTION('',(0.0,0.0,1.0));
#398=DIRECTION('',(-0.707106781186548,0.707106781186547,0.0));
#399=AXIS2_PLACEMENT_3D('',#396,#397,#398);
#400=CYLINDRICAL_SURFACE('',#399,2.0);
#401=CARTESIAN_POINT('',(-25.399999999999999,8.200000000000001,-12.699999999999999));
#402=DIRECTION('',(0.0,0.0,1.0));
#403=VECTOR('',#402,25.399999999999999);
#404=LINE('',#401,#403);
#405=EDGE_CURVE('',#315,#378,#404,.T.);
#406=ORIENTED_EDGE('',*,*,#405,.T.);
#407=ORIENTED_EDGE('',*,*,#384,.F.);
#408=CARTESIAN_POINT('',(-23.399999999999999,10.199999999999999,10.700000000000001));
#409=DIRECTION('',(0.0,0.0,-1.0));
#410=VECTOR('',#409,21.399999999999999);
#411=LINE('',#408,#410);
#412=EDGE_CURVE('',#370,#296,#411,.T.);
#413=ORIENTED_EDGE('',*,*,#412,.T.);
#414=ORIENTED_EDGE('',*,*,#327,.T.);
#415=EDGE_LOOP('',(#406,#407,#413,#414));
#416=FACE_OUTER_BOUND('',#415,.T.);
#417=ADVANCED_FACE('',(#416),#400,.T.);
#418=CARTESIAN_POINT('',(-25.399999999999999,0.0,-12.699999999999999));
#419=DIRECTION('',(-1.0,0.0,0.0));
#420=DIRECTION('',(0.0,0.0,1.0));
#421=AXIS2_PLACEMENT_3D('',#418,#419,#420);
#422=PLANE('',#421);
#423=ORIENTED_EDGE('',*,*,#405,.F.);
#424=CARTESIAN_POINT('',(-25.399999999999999,0.0,-12.699999999999999));
#425=VERTEX_POINT('',#424);
#426=CARTESIAN_POINT('',(-25.399999999999999,0.0,-12.699999999999999));
#427=DIRECTION('',(0.0,1.0,0.0));
#428=VECTOR('',#427,8.200000000000001);
#429=LINE('',#426,#428);
#430=EDGE_CURVE('',#425,#315,#429,.T.);
#431=ORIENTED_EDGE('',*,*,#430,.F.);
#432=CARTESIAN_POINT('',(-25.399999999999999,0.0,12.699999999999999));
#433=VERTEX_POINT('',#432);
#434=CARTESIAN_POINT('',(-25.399999999999999,0.0,12.699999999999999));
#435=DIRECTION('',(0.0,0.0,-1.0));
#436=VECTOR('',#435,25.399999999999999);
#437=LINE('',#434,#436);
#438=EDGE_CURVE('',#433,#425,#437,.T.);
#439=ORIENTED_EDGE('',*,*,#438,.F.);
#440=CARTESIAN_POINT('',(-25.399999999999999,0.0,12.699999999999999));
#441=DIRECTION('',(0.0,1.0,0.0));
#442=VECTOR('',#441,8.200000000000001);
#443=LINE('',#440,#442);
#444=EDGE_CURVE('',#433,#378,#443,.T.);
#445=ORIENTED_EDGE('',*,*,#444,.T.);
#446=EDGE_LOOP('',(#423,#431,#439,#445));
#447=FACE_OUTER_BOUND('',#446,.T.);
#448=ADVANCED_FACE('',(#447),#422,.T.);
#449=CARTESIAN_POINT('',(25.399999999999999,0.0,-12.699999999999999));
#450=DIRECTION('',(0.0,0.0,-1.0));
#451=DIRECTION('',(-1.0,0.0,0.0));
#452=AXIS2_PLACEMENT_3D('',#449,#450,#451);
#453=PLANE('',#452);
#454=ORIENTED_EDGE('',*,*,#320,.F.);
#455=CARTESIAN_POINT('',(25.399999999999999,0.0,-12.699999999999999));
#456=VERTEX_POINT('',#455);
#457=CARTESIAN_POINT('',(25.399999999999999,0.0,-12.699999999999999));
#458=DIRECTION('',(0.0,1.0,0.0));
#459=VECTOR('',#458,8.200000000000001);
#460=LINE('',#457,#459);
#461=EDGE_CURVE('',#456,#306,#460,.T.);
#462=ORIENTED_EDGE('',*,*,#461,.F.);
#463=CARTESIAN_POINT('',(-25.399999999999999,0.0,-12.699999999999999));
#464=DIRECTION('',(1.0,0.0,0.0));
#465=VECTOR('',#464,50.799999999999997);
#466=LINE('',#463,#465);
#467=EDGE_CURVE('',#425,#456,#466,.T.);
#468=ORIENTED_EDGE('',*,*,#467,.F.);
#469=ORIENTED_EDGE('',*,*,#430,.T.);
#470=EDGE_LOOP('',(#454,#462,#468,#469));
#471=FACE_OUTER_BOUND('',#470,.T.);
#472=ADVANCED_FACE('',(#471),#453,.T.);
#473=CARTESIAN_POINT('',(0.0,10.199999999999999,0.0));
#474=DIRECTION('',(0.0,1.0,0.0));
#475=DIRECTION('',(0.0,0.0,1.0));
#476=AXIS2_PLACEMENT_3D('',#473,#474,#475);
#477=PLANE('',#476);
#478=ORIENTED_EDGE('',*,*,#303,.F.);
#479=ORIENTED_EDGE('',*,*,#412,.F.);
#480=ORIENTED_EDGE('',*,*,#375,.F.);
#481=ORIENTED_EDGE('',*,*,#343,.F.);
#482=EDGE_LOOP('',(#478,#479,#480,#481));
#483=FACE_OUTER_BOUND('',#482,.T.);
#484=ADVANCED_FACE('',(#483),#477,.T.);
#485=CARTESIAN_POINT('',(25.399999999999999,0.0,12.699999999999999));
#486=DIRECTION('',(1.0,0.0,0.0));
#487=DIRECTION('',(0.0,0.0,-1.0));
#488=AXIS2_PLACEMENT_3D('',#485,#486,#487);
#489=PLANE('',#488);
#490=ORIENTED_EDGE('',*,*,#358,.F.);
#491=CARTESIAN_POINT('',(25.399999999999999,0.0,12.699999999999999));
#492=VERTEX_POINT('',#491);
#493=CARTESIAN_POINT('',(25.399999999999999,0.0,12.699999999999999));
#494=DIRECTION('',(0.0,1.0,0.0));
#495=VECTOR('',#494,8.200000000000001);
#496=LINE('',#493,#495);
#497=EDGE_CURVE('',#492,#346,#496,.T.);
#498=ORIENTED_EDGE('',*,*,#497,.F.);
#499=CARTESIAN_POINT('',(25.399999999999999,0.0,-12.699999999999999));
#500=DIRECTION('',(0.0,0.0,1.0));
#501=VECTOR('',#500,25.399999999999999);
#502=LINE('',#499,#501);
#503=EDGE_CURVE('',#456,#492,#502,.T.);
#504=ORIENTED_EDGE('',*,*,#503,.F.);
#505=ORIENTED_EDGE('',*,*,#461,.T.);
#506=EDGE_LOOP('',(#490,#498,#504,#505));
#507=FACE_OUTER_BOUND('',#506,.T.);
#508=ADVANCED_FACE('',(#507),#489,.T.);
#509=CARTESIAN_POINT('',(-25.399999999999999,0.0,12.699999999999999));
#510=DIRECTION('',(0.0,0.0,1.0));
#511=DIRECTION('',(1.0,0.0,0.0));
#512=AXIS2_PLACEMENT_3D('',#509,#510,#511);
#513=PLANE('',#512);
#514=ORIENTED_EDGE('',*,*,#390,.F.);
#515=ORIENTED_EDGE('',*,*,#444,.F.);
#516=CARTESIAN_POINT('',(25.399999999999999,0.0,12.699999999999999));
#517=DIRECTION('',(-1.0,0.0,0.0));
#518=VECTOR('',#517,50.799999999999997);
#519=LINE('',#516,#518);
#520=EDGE_CURVE('',#492,#433,#519,.T.);
#521=ORIENTED_EDGE('',*,*,#520,.F.);
#522=ORIENTED_EDGE('',*,*,#497,.T.);
#523=EDGE_LOOP('',(#514,#515,#521,#522));
#524=FACE_OUTER_BOUND('',#523,.T.);
#525=ADVANCED_FACE('',(#524),#513,.T.);
#526=CARTESIAN_POINT('',(0.0,0.0,0.0));
#527=DIRECTION('',(0.0,1.0,0.0));
#528=DIRECTION('',(0.0,0.0,1.0));
#529=AXIS2_PLACEMENT_3D('',#526,#527,#528);
#530=PLANE('',#529);
#531=ORIENTED_EDGE('',*,*,#520,.T.);
#532=ORIENTED_EDGE('',*,*,#438,.T.);
#533=ORIENTED_EDGE('',*,*,#467,.T.);
#534=ORIENTED_EDGE('',*,*,#503,.T.);
#535=EDGE_LOOP('',(#531,#532,#533,#534));
#536=FACE_OUTER_BOUND('',#535,.T.);
#537=ORIENTED_EDGE('',*,*,#91,.T.);
#538=EDGE_LOOP('',(#537));
#539=FACE_BOUND('',#538,.T.);
#540=ORIENTED_EDGE('',*,*,#128,.T.);
#541=EDGE_LOOP('',(#540));
#542=FACE_BOUND('',#541,.T.);
#543=ORIENTED_EDGE('',*,*,#165,.T.);
#544=EDGE_LOOP('',(#543));
#545=FACE_BOUND('',#544,.T.);
#546=ORIENTED_EDGE('',*,*,#202,.T.);
#547=EDGE_LOOP('',(#546));
#548=FACE_BOUND('',#547,.T.);
#549=ORIENTED_EDGE('',*,*,#239,.T.);
#550=EDGE_LOOP('',(#549));
#551=FACE_BOUND('',#550,.T.);
#552=ORIENTED_EDGE('',*,*,#276,.T.);
#553=EDGE_LOOP('',(#552));
#554=FACE_BOUND('',#553,.T.);
#555=ADVANCED_FACE('',(#536,#539,#542,#545,#548,#551,#554),#530,.F.);
#556=CLOSED_SHELL('',(#95,#104,#132,#141,#169,#178,#206,#215,#243,#252,#280,#289,#331,#363,#395,#417,#448,#472,#484,#508,#525,#555));
#557=MANIFOLD_SOLID_BREP('Solid1',#556);
#558=COLOUR_RGB('Semi-Polished',0.745000004768372,0.736999988555908,0.728999972343445);
#559=FILL_AREA_STYLE_COLOUR('Semi-Polished',#558);
#560=FILL_AREA_STYLE('Semi-Polished',(#559));
#561=SURFACE_STYLE_FILL_AREA(#560);
#562=SURFACE_SIDE_STYLE('Semi-Polished',(#561));
#563=SURFACE_STYLE_USAGE(.BOTH.,#562);
#564=PRESENTATION_STYLE_ASSIGNMENT((#563));
#565=STYLED_ITEM('',(#564),#557);
#566=MECHANICAL_DESIGN_GEOMETRIC_PRESENTATION_REPRESENTATION('',(#565),#36);
#567=ADVANCED_BREP_SHAPE_REPRESENTATION('ABSR',(#557),#36);
#568=SHAPE_REPRESENTATION_RELATIONSHIP('SRR','None',#567,#41);
ENDSEC;
END-ISO-10303-21;
