ISO-10303-21;
HEADER;
FILE_DESCRIPTION(('FreeCAD Model'),'2;1');
FILE_NAME(
'D:/KiCAD/packages3D-source/Diodes_SMD.3dshapes\\
D_MicroMELF_Standard.step','2017-04-30T14:24:33',('kicad StepUp'),(
    'ksu MCAD'),'Open CASCADE STEP processor 7.1','FreeCAD','Unknown');
FILE_SCHEMA(('AUTOMOTIVE_DESIGN_CC2 { 1 2 10303 214 -1 1 5 4 }'));
ENDSEC;
DATA;
#1 = APPLICATION_PROTOCOL_DEFINITION('committee draft',
  'automotive_design',1997,#2);
#2 = APPLICATION_CONTEXT(
  'core data for automotive mechanical design processes');
#3 = SHAPE_DEFINITION_REPRESENTATION(#4,#10);
#4 = PRODUCT_DEFINITION_SHAPE('','',#5);
#5 = PRODUCT_DEFINITION('design','',#6,#9);
#6 = PRODUCT_DEFINITION_FORMATION('','',#7);
#7 = PRODUCT('D_MicroMELF_Standard','D_MicroMELF_Standard','',(#8));
#8 = MECHANICAL_CONTEXT('',#2,'mechanical');
#9 = PRODUCT_DEFINITION_CONTEXT('part definition',#2,'design');
#10 = ADVANCED_BREP_SHAPE_REPRESENTATION('',(#11,#15),#308);
#11 = AXIS2_PLACEMENT_3D('',#12,#13,#14);
#12 = CARTESIAN_POINT('',(0.E+000,0.E+000,0.E+000));
#13 = DIRECTION('',(0.E+000,0.E+000,1.));
#14 = DIRECTION('',(1.,0.E+000,-0.E+000));
#15 = MANIFOLD_SOLID_BREP('',#16);
#16 = CLOSED_SHELL('',(#17,#50,#70,#90,#115,#140,#160,#180,#205,#230,
    #260,#290,#299));
#17 = ADVANCED_FACE('',(#18),#45,.T.);
#18 = FACE_BOUND('',#19,.T.);
#19 = EDGE_LOOP('',(#20,#29,#37,#44));
#20 = ORIENTED_EDGE('',*,*,#21,.T.);
#21 = EDGE_CURVE('',#22,#22,#24,.T.);
#22 = VERTEX_POINT('',#23);
#23 = CARTESIAN_POINT('',(-0.33,9.992007221626E-018,1.5E-002));
#24 = CIRCLE('',#25,0.535);
#25 = AXIS2_PLACEMENT_3D('',#26,#27,#28);
#26 = CARTESIAN_POINT('',(-0.33,2.442490654175E-016,0.55));
#27 = DIRECTION('',(-1.,-0.E+000,0.E+000));
#28 = DIRECTION('',(0.E+000,-4.378636601793E-016,-1.));
#29 = ORIENTED_EDGE('',*,*,#30,.T.);
#30 = EDGE_CURVE('',#22,#31,#33,.T.);
#31 = VERTEX_POINT('',#32);
#32 = CARTESIAN_POINT('',(-0.48,9.992007221626E-018,1.5E-002));
#33 = LINE('',#34,#35);
#34 = CARTESIAN_POINT('',(-0.33,9.992007221626E-018,1.5E-002));
#35 = VECTOR('',#36,1.);
#36 = DIRECTION('',(-1.,0.E+000,0.E+000));
#37 = ORIENTED_EDGE('',*,*,#38,.F.);
#38 = EDGE_CURVE('',#31,#31,#39,.T.);
#39 = CIRCLE('',#40,0.535);
#40 = AXIS2_PLACEMENT_3D('',#41,#42,#43);
#41 = CARTESIAN_POINT('',(-0.48,2.442490654175E-016,0.55));
#42 = DIRECTION('',(-1.,-0.E+000,0.E+000));
#43 = DIRECTION('',(0.E+000,-4.378636601793E-016,-1.));
#44 = ORIENTED_EDGE('',*,*,#30,.F.);
#45 = CYLINDRICAL_SURFACE('',#46,0.535);
#46 = AXIS2_PLACEMENT_3D('',#47,#48,#49);
#47 = CARTESIAN_POINT('',(-0.33,2.442490654175E-016,0.55));
#48 = DIRECTION('',(-1.,0.E+000,-0.E+000));
#49 = DIRECTION('',(0.E+000,-4.378636601793E-016,-1.));
#50 = ADVANCED_FACE('',(#51,#54),#65,.F.);
#51 = FACE_BOUND('',#52,.T.);
#52 = EDGE_LOOP('',(#53));
#53 = ORIENTED_EDGE('',*,*,#21,.F.);
#54 = FACE_BOUND('',#55,.T.);
#55 = EDGE_LOOP('',(#56));
#56 = ORIENTED_EDGE('',*,*,#57,.T.);
#57 = EDGE_CURVE('',#58,#58,#60,.T.);
#58 = VERTEX_POINT('',#59);
#59 = CARTESIAN_POINT('',(-0.33,1.665334536938E-017,2.5E-002));
#60 = CIRCLE('',#61,0.525);
#61 = AXIS2_PLACEMENT_3D('',#62,#63,#64);
#62 = CARTESIAN_POINT('',(-0.33,2.442490654175E-016,0.55));
#63 = DIRECTION('',(-1.,-0.E+000,0.E+000));
#64 = DIRECTION('',(0.E+000,-4.335156572346E-016,-1.));
#65 = PLANE('',#66);
#66 = AXIS2_PLACEMENT_3D('',#67,#68,#69);
#67 = CARTESIAN_POINT('',(-0.33,2.442490654175E-016,0.55));
#68 = DIRECTION('',(-1.,0.E+000,-0.E+000));
#69 = DIRECTION('',(0.E+000,-4.289987998066E-016,-1.));
#70 = ADVANCED_FACE('',(#71,#74),#85,.T.);
#71 = FACE_BOUND('',#72,.T.);
#72 = EDGE_LOOP('',(#73));
#73 = ORIENTED_EDGE('',*,*,#38,.T.);
#74 = FACE_BOUND('',#75,.T.);
#75 = EDGE_LOOP('',(#76));
#76 = ORIENTED_EDGE('',*,*,#77,.F.);
#77 = EDGE_CURVE('',#78,#78,#80,.T.);
#78 = VERTEX_POINT('',#79);
#79 = CARTESIAN_POINT('',(-0.48,1.665334536938E-017,2.5E-002));
#80 = CIRCLE('',#81,0.525);
#81 = AXIS2_PLACEMENT_3D('',#82,#83,#84);
#82 = CARTESIAN_POINT('',(-0.48,2.442490654175E-016,0.55));
#83 = DIRECTION('',(-1.,-0.E+000,0.E+000));
#84 = DIRECTION('',(0.E+000,-4.335156572346E-016,-1.));
#85 = PLANE('',#86);
#86 = AXIS2_PLACEMENT_3D('',#87,#88,#89);
#87 = CARTESIAN_POINT('',(-0.48,2.442490654175E-016,0.55));
#88 = DIRECTION('',(-1.,0.E+000,-0.E+000));
#89 = DIRECTION('',(0.E+000,-4.378636601793E-016,-1.));
#90 = ADVANCED_FACE('',(#91),#110,.T.);
#91 = FACE_BOUND('',#92,.T.);
#92 = EDGE_LOOP('',(#93,#102,#108,#109));
#93 = ORIENTED_EDGE('',*,*,#94,.T.);
#94 = EDGE_CURVE('',#95,#95,#97,.T.);
#95 = VERTEX_POINT('',#96);
#96 = CARTESIAN_POINT('',(0.6,1.665334536938E-017,2.5E-002));
#97 = CIRCLE('',#98,0.525);
#98 = AXIS2_PLACEMENT_3D('',#99,#100,#101);
#99 = CARTESIAN_POINT('',(0.6,2.442490654175E-016,0.55));
#100 = DIRECTION('',(-1.,-0.E+000,0.E+000));
#101 = DIRECTION('',(0.E+000,-4.335156572346E-016,-1.));
#102 = ORIENTED_EDGE('',*,*,#103,.T.);
#103 = EDGE_CURVE('',#95,#58,#104,.T.);
#104 = LINE('',#105,#106);
#105 = CARTESIAN_POINT('',(0.85,1.665334536938E-017,2.5E-002));
#106 = VECTOR('',#107,1.);
#107 = DIRECTION('',(-1.,0.E+000,0.E+000));
#108 = ORIENTED_EDGE('',*,*,#57,.F.);
#109 = ORIENTED_EDGE('',*,*,#103,.F.);
#110 = CYLINDRICAL_SURFACE('',#111,0.525);
#111 = AXIS2_PLACEMENT_3D('',#112,#113,#114);
#112 = CARTESIAN_POINT('',(0.85,2.442490654175E-016,0.55));
#113 = DIRECTION('',(-1.,0.E+000,-0.E+000));
#114 = DIRECTION('',(0.E+000,-4.335156572346E-016,-1.));
#115 = ADVANCED_FACE('',(#116),#135,.T.);
#116 = FACE_BOUND('',#117,.T.);
#117 = EDGE_LOOP('',(#118,#119,#127,#134));
#118 = ORIENTED_EDGE('',*,*,#77,.T.);
#119 = ORIENTED_EDGE('',*,*,#120,.T.);
#120 = EDGE_CURVE('',#78,#121,#123,.T.);
#121 = VERTEX_POINT('',#122);
#122 = CARTESIAN_POINT('',(-0.6,1.665334536938E-017,2.5E-002));
#123 = LINE('',#124,#125);
#124 = CARTESIAN_POINT('',(0.85,1.665334536938E-017,2.5E-002));
#125 = VECTOR('',#126,1.);
#126 = DIRECTION('',(-1.,0.E+000,0.E+000));
#127 = ORIENTED_EDGE('',*,*,#128,.F.);
#128 = EDGE_CURVE('',#121,#121,#129,.T.);
#129 = CIRCLE('',#130,0.525);
#130 = AXIS2_PLACEMENT_3D('',#131,#132,#133);
#131 = CARTESIAN_POINT('',(-0.6,2.442490654175E-016,0.55));
#132 = DIRECTION('',(-1.,-0.E+000,0.E+000));
#133 = DIRECTION('',(0.E+000,-4.335156572346E-016,-1.));
#134 = ORIENTED_EDGE('',*,*,#120,.F.);
#135 = CYLINDRICAL_SURFACE('',#136,0.525);
#136 = AXIS2_PLACEMENT_3D('',#137,#138,#139);
#137 = CARTESIAN_POINT('',(0.85,2.442490654175E-016,0.55));
#138 = DIRECTION('',(-1.,0.E+000,-0.E+000));
#139 = DIRECTION('',(0.E+000,-4.335156572346E-016,-1.));
#140 = ADVANCED_FACE('',(#141,#152),#155,.T.);
#141 = FACE_BOUND('',#142,.T.);
#142 = EDGE_LOOP('',(#143));
#143 = ORIENTED_EDGE('',*,*,#144,.T.);
#144 = EDGE_CURVE('',#145,#145,#147,.T.);
#145 = VERTEX_POINT('',#146);
#146 = CARTESIAN_POINT('',(0.6,-1.964448543275E-032,-2.949029909161E-017
    ));
#147 = CIRCLE('',#148,0.55);
#148 = AXIS2_PLACEMENT_3D('',#149,#150,#151);
#149 = CARTESIAN_POINT('',(0.6,2.442490654175E-016,0.55));
#150 = DIRECTION('',(-1.,-0.E+000,0.E+000));
#151 = DIRECTION('',(0.E+000,-4.440892098501E-016,-1.));
#152 = FACE_BOUND('',#153,.T.);
#153 = EDGE_LOOP('',(#154));
#154 = ORIENTED_EDGE('',*,*,#94,.F.);
#155 = PLANE('',#156);
#156 = AXIS2_PLACEMENT_3D('',#157,#158,#159);
#157 = CARTESIAN_POINT('',(0.6,2.442490654175E-016,0.55));
#158 = DIRECTION('',(-1.,0.E+000,-0.E+000));
#159 = DIRECTION('',(0.E+000,-4.440892098501E-016,-1.));
#160 = ADVANCED_FACE('',(#161,#172),#175,.F.);
#161 = FACE_BOUND('',#162,.F.);
#162 = EDGE_LOOP('',(#163));
#163 = ORIENTED_EDGE('',*,*,#164,.T.);
#164 = EDGE_CURVE('',#165,#165,#167,.T.);
#165 = VERTEX_POINT('',#166);
#166 = CARTESIAN_POINT('',(-0.6,-1.550559804381E-032,
    -2.327700185741E-017));
#167 = CIRCLE('',#168,0.55);
#168 = AXIS2_PLACEMENT_3D('',#169,#170,#171);
#169 = CARTESIAN_POINT('',(-0.6,2.442490654175E-016,0.55));
#170 = DIRECTION('',(-1.,-0.E+000,0.E+000));
#171 = DIRECTION('',(0.E+000,-4.440892098501E-016,-1.));
#172 = FACE_BOUND('',#173,.F.);
#173 = EDGE_LOOP('',(#174));
#174 = ORIENTED_EDGE('',*,*,#128,.F.);
#175 = PLANE('',#176);
#176 = AXIS2_PLACEMENT_3D('',#177,#178,#179);
#177 = CARTESIAN_POINT('',(-0.6,2.442490654175E-016,0.55));
#178 = DIRECTION('',(-1.,0.E+000,-0.E+000));
#179 = DIRECTION('',(0.E+000,-4.440892098501E-016,-1.));
#180 = ADVANCED_FACE('',(#181),#200,.T.);
#181 = FACE_BOUND('',#182,.F.);
#182 = EDGE_LOOP('',(#183,#184,#192,#199));
#183 = ORIENTED_EDGE('',*,*,#144,.T.);
#184 = ORIENTED_EDGE('',*,*,#185,.T.);
#185 = EDGE_CURVE('',#145,#186,#188,.T.);
#186 = VERTEX_POINT('',#187);
#187 = CARTESIAN_POINT('',(1.,-1.906670644943E-032,-2.862293735362E-017)
  );
#188 = LINE('',#189,#190);
#189 = CARTESIAN_POINT('',(0.6,-1.964448543275E-032,-2.949029909161E-017
    ));
#190 = VECTOR('',#191,1.);
#191 = DIRECTION('',(1.,0.E+000,0.E+000));
#192 = ORIENTED_EDGE('',*,*,#193,.F.);
#193 = EDGE_CURVE('',#186,#186,#194,.T.);
#194 = CIRCLE('',#195,0.55);
#195 = AXIS2_PLACEMENT_3D('',#196,#197,#198);
#196 = CARTESIAN_POINT('',(1.,2.442490654175E-016,0.55));
#197 = DIRECTION('',(-1.,-0.E+000,0.E+000));
#198 = DIRECTION('',(0.E+000,-4.440892098501E-016,-1.));
#199 = ORIENTED_EDGE('',*,*,#185,.F.);
#200 = CYLINDRICAL_SURFACE('',#201,0.55);
#201 = AXIS2_PLACEMENT_3D('',#202,#203,#204);
#202 = CARTESIAN_POINT('',(0.6,2.442490654175E-016,0.55));
#203 = DIRECTION('',(1.,0.E+000,0.E+000));
#204 = DIRECTION('',(0.E+000,-4.440892098501E-016,-1.));
#205 = ADVANCED_FACE('',(#206),#225,.T.);
#206 = FACE_BOUND('',#207,.F.);
#207 = EDGE_LOOP('',(#208,#217,#223,#224));
#208 = ORIENTED_EDGE('',*,*,#209,.T.);
#209 = EDGE_CURVE('',#210,#210,#212,.T.);
#210 = VERTEX_POINT('',#211);
#211 = CARTESIAN_POINT('',(-1.,-1.699726277991E-032,-2.551628877398E-017
    ));
#212 = CIRCLE('',#213,0.55);
#213 = AXIS2_PLACEMENT_3D('',#214,#215,#216);
#214 = CARTESIAN_POINT('',(-1.,2.442490654175E-016,0.55));
#215 = DIRECTION('',(-1.,-0.E+000,0.E+000));
#216 = DIRECTION('',(0.E+000,-4.440892098501E-016,-1.));
#217 = ORIENTED_EDGE('',*,*,#218,.T.);
#218 = EDGE_CURVE('',#210,#165,#219,.T.);
#219 = LINE('',#220,#221);
#220 = CARTESIAN_POINT('',(-1.,-1.550559804381E-032,-2.327700185741E-017
    ));
#221 = VECTOR('',#222,1.);
#222 = DIRECTION('',(1.,0.E+000,0.E+000));
#223 = ORIENTED_EDGE('',*,*,#164,.F.);
#224 = ORIENTED_EDGE('',*,*,#218,.F.);
#225 = CYLINDRICAL_SURFACE('',#226,0.55);
#226 = AXIS2_PLACEMENT_3D('',#227,#228,#229);
#227 = CARTESIAN_POINT('',(-1.,2.442490654175E-016,0.55));
#228 = DIRECTION('',(1.,0.E+000,0.E+000));
#229 = DIRECTION('',(0.E+000,-4.440892098501E-016,-1.));
#230 = ADVANCED_FACE('',(#231),#251,.F.);
#231 = FACE_BOUND('',#232,.F.);
#232 = EDGE_LOOP('',(#233,#234,#243,#250));
#233 = ORIENTED_EDGE('',*,*,#193,.T.);
#234 = ORIENTED_EDGE('',*,*,#235,.T.);
#235 = EDGE_CURVE('',#186,#236,#238,.T.);
#236 = VERTEX_POINT('',#237);
#237 = CARTESIAN_POINT('',(1.1,6.66133814775E-017,9.999999999999E-002));
#238 = CIRCLE('',#239,0.1);
#239 = AXIS2_PLACEMENT_3D('',#240,#241,#242);
#240 = CARTESIAN_POINT('',(1.,6.661338147751E-017,1.E-001));
#241 = DIRECTION('',(0.E+000,-1.,6.661338147751E-016));
#242 = DIRECTION('',(1.,0.E+000,0.E+000));
#243 = ORIENTED_EDGE('',*,*,#244,.F.);
#244 = EDGE_CURVE('',#236,#236,#245,.T.);
#245 = CIRCLE('',#246,0.45);
#246 = AXIS2_PLACEMENT_3D('',#247,#248,#249);
#247 = CARTESIAN_POINT('',(1.1,2.442490654175E-016,0.55));
#248 = DIRECTION('',(-1.,-0.E+000,0.E+000));
#249 = DIRECTION('',(0.E+000,-3.947459643112E-016,-1.));
#250 = ORIENTED_EDGE('',*,*,#235,.F.);
#251 = SURFACE_OF_REVOLUTION('',#252,#257);
#252 = CIRCLE('',#253,1.E-001);
#253 = AXIS2_PLACEMENT_3D('',#254,#255,#256);
#254 = CARTESIAN_POINT('',(1.,6.661338147751E-017,1.E-001));
#255 = DIRECTION('',(0.E+000,-1.,6.661338147751E-016));
#256 = DIRECTION('',(1.,0.E+000,0.E+000));
#257 = AXIS1_PLACEMENT('',#258,#259);
#258 = CARTESIAN_POINT('',(-8.9,2.442490654175E-016,0.55));
#259 = DIRECTION('',(-1.,0.E+000,-0.E+000));
#260 = ADVANCED_FACE('',(#261),#281,.F.);
#261 = FACE_BOUND('',#262,.F.);
#262 = EDGE_LOOP('',(#263,#272,#279,#280));
#263 = ORIENTED_EDGE('',*,*,#264,.T.);
#264 = EDGE_CURVE('',#265,#265,#267,.T.);
#265 = VERTEX_POINT('',#266);
#266 = CARTESIAN_POINT('',(-1.1,6.661338147752E-017,0.1));
#267 = CIRCLE('',#268,0.45);
#268 = AXIS2_PLACEMENT_3D('',#269,#270,#271);
#269 = CARTESIAN_POINT('',(-1.1,2.442490654175E-016,0.55));
#270 = DIRECTION('',(-1.,-0.E+000,0.E+000));
#271 = DIRECTION('',(0.E+000,-3.947459643112E-016,-1.));
#272 = ORIENTED_EDGE('',*,*,#273,.T.);
#273 = EDGE_CURVE('',#265,#210,#274,.T.);
#274 = CIRCLE('',#275,0.1);
#275 = AXIS2_PLACEMENT_3D('',#276,#277,#278);
#276 = CARTESIAN_POINT('',(-1.,6.661338147751E-017,1.E-001));
#277 = DIRECTION('',(0.E+000,-1.,6.661338147751E-016));
#278 = DIRECTION('',(1.,0.E+000,0.E+000));
#279 = ORIENTED_EDGE('',*,*,#209,.F.);
#280 = ORIENTED_EDGE('',*,*,#273,.F.);
#281 = SURFACE_OF_REVOLUTION('',#282,#287);
#282 = CIRCLE('',#283,1.E-001);
#283 = AXIS2_PLACEMENT_3D('',#284,#285,#286);
#284 = CARTESIAN_POINT('',(-1.,6.661338147751E-017,1.E-001));
#285 = DIRECTION('',(0.E+000,-1.,6.661338147751E-016));
#286 = DIRECTION('',(1.,0.E+000,0.E+000));
#287 = AXIS1_PLACEMENT('',#288,#289);
#288 = CARTESIAN_POINT('',(-8.9,2.442490654175E-016,0.55));
#289 = DIRECTION('',(-1.,0.E+000,-0.E+000));
#290 = ADVANCED_FACE('',(#291),#294,.F.);
#291 = FACE_BOUND('',#292,.F.);
#292 = EDGE_LOOP('',(#293));
#293 = ORIENTED_EDGE('',*,*,#244,.T.);
#294 = PLANE('',#295);
#295 = AXIS2_PLACEMENT_3D('',#296,#297,#298);
#296 = CARTESIAN_POINT('',(1.1,2.442490654175E-016,0.55));
#297 = DIRECTION('',(-1.,0.E+000,-0.E+000));
#298 = DIRECTION('',(0.E+000,-3.947459643112E-016,-1.));
#299 = ADVANCED_FACE('',(#300),#303,.T.);
#300 = FACE_BOUND('',#301,.F.);
#301 = EDGE_LOOP('',(#302));
#302 = ORIENTED_EDGE('',*,*,#264,.F.);
#303 = PLANE('',#304);
#304 = AXIS2_PLACEMENT_3D('',#305,#306,#307);
#305 = CARTESIAN_POINT('',(-1.1,2.442490654175E-016,0.55));
#306 = DIRECTION('',(-1.,0.E+000,-0.E+000));
#307 = DIRECTION('',(0.E+000,-3.947459643112E-016,-1.));
#308 = ( GEOMETRIC_REPRESENTATION_CONTEXT(3) 
GLOBAL_UNCERTAINTY_ASSIGNED_CONTEXT((#312)) GLOBAL_UNIT_ASSIGNED_CONTEXT
((#309,#310,#311)) REPRESENTATION_CONTEXT('Context #1',
  '3D Context with UNIT and UNCERTAINTY') );
#309 = ( LENGTH_UNIT() NAMED_UNIT(*) SI_UNIT(.MILLI.,.METRE.) );
#310 = ( NAMED_UNIT(*) PLANE_ANGLE_UNIT() SI_UNIT($,.RADIAN.) );
#311 = ( NAMED_UNIT(*) SI_UNIT($,.STERADIAN.) SOLID_ANGLE_UNIT() );
#312 = UNCERTAINTY_MEASURE_WITH_UNIT(LENGTH_MEASURE(1.E-007),#309,
  'distance_accuracy_value','confusion accuracy');
#313 = PRODUCT_TYPE('part',$,(#7));
#314 = MECHANICAL_DESIGN_GEOMETRIC_PRESENTATION_REPRESENTATION('',(#315,
    #323,#330,#337,#345,#352,#360,#367,#374,#381,#388,#395,#402),#308);
#315 = STYLED_ITEM('color',(#316),#17);
#316 = PRESENTATION_STYLE_ASSIGNMENT((#317));
#317 = SURFACE_STYLE_USAGE(.BOTH.,#318);
#318 = SURFACE_SIDE_STYLE('',(#319));
#319 = SURFACE_STYLE_FILL_AREA(#320);
#320 = FILL_AREA_STYLE('',(#321));
#321 = FILL_AREA_STYLE_COLOUR('',#322);
#322 = DRAUGHTING_PRE_DEFINED_COLOUR('blue');
#323 = STYLED_ITEM('color',(#324),#50);
#324 = PRESENTATION_STYLE_ASSIGNMENT((#325));
#325 = SURFACE_STYLE_USAGE(.BOTH.,#326);
#326 = SURFACE_SIDE_STYLE('',(#327));
#327 = SURFACE_STYLE_FILL_AREA(#328);
#328 = FILL_AREA_STYLE('',(#329));
#329 = FILL_AREA_STYLE_COLOUR('',#322);
#330 = STYLED_ITEM('color',(#331),#70);
#331 = PRESENTATION_STYLE_ASSIGNMENT((#332));
#332 = SURFACE_STYLE_USAGE(.BOTH.,#333);
#333 = SURFACE_SIDE_STYLE('',(#334));
#334 = SURFACE_STYLE_FILL_AREA(#335);
#335 = FILL_AREA_STYLE('',(#336));
#336 = FILL_AREA_STYLE_COLOUR('',#322);
#337 = STYLED_ITEM('color',(#338),#90);
#338 = PRESENTATION_STYLE_ASSIGNMENT((#339));
#339 = SURFACE_STYLE_USAGE(.BOTH.,#340);
#340 = SURFACE_SIDE_STYLE('',(#341));
#341 = SURFACE_STYLE_FILL_AREA(#342);
#342 = FILL_AREA_STYLE('',(#343));
#343 = FILL_AREA_STYLE_COLOUR('',#344);
#344 = COLOUR_RGB('',0.699999988079,0.10000000149,5.000000074506E-002);
#345 = STYLED_ITEM('color',(#346),#115);
#346 = PRESENTATION_STYLE_ASSIGNMENT((#347));
#347 = SURFACE_STYLE_USAGE(.BOTH.,#348);
#348 = SURFACE_SIDE_STYLE('',(#349));
#349 = SURFACE_STYLE_FILL_AREA(#350);
#350 = FILL_AREA_STYLE('',(#351));
#351 = FILL_AREA_STYLE_COLOUR('',#344);
#352 = STYLED_ITEM('color',(#353),#140);
#353 = PRESENTATION_STYLE_ASSIGNMENT((#354));
#354 = SURFACE_STYLE_USAGE(.BOTH.,#355);
#355 = SURFACE_SIDE_STYLE('',(#356));
#356 = SURFACE_STYLE_FILL_AREA(#357);
#357 = FILL_AREA_STYLE('',(#358));
#358 = FILL_AREA_STYLE_COLOUR('',#359);
#359 = COLOUR_RGB('',0.824000000954,0.819999992847,0.78100001812);
#360 = STYLED_ITEM('color',(#361),#160);
#361 = PRESENTATION_STYLE_ASSIGNMENT((#362));
#362 = SURFACE_STYLE_USAGE(.BOTH.,#363);
#363 = SURFACE_SIDE_STYLE('',(#364));
#364 = SURFACE_STYLE_FILL_AREA(#365);
#365 = FILL_AREA_STYLE('',(#366));
#366 = FILL_AREA_STYLE_COLOUR('',#359);
#367 = STYLED_ITEM('color',(#368),#180);
#368 = PRESENTATION_STYLE_ASSIGNMENT((#369));
#369 = SURFACE_STYLE_USAGE(.BOTH.,#370);
#370 = SURFACE_SIDE_STYLE('',(#371));
#371 = SURFACE_STYLE_FILL_AREA(#372);
#372 = FILL_AREA_STYLE('',(#373));
#373 = FILL_AREA_STYLE_COLOUR('',#359);
#374 = STYLED_ITEM('color',(#375),#205);
#375 = PRESENTATION_STYLE_ASSIGNMENT((#376));
#376 = SURFACE_STYLE_USAGE(.BOTH.,#377);
#377 = SURFACE_SIDE_STYLE('',(#378));
#378 = SURFACE_STYLE_FILL_AREA(#379);
#379 = FILL_AREA_STYLE('',(#380));
#380 = FILL_AREA_STYLE_COLOUR('',#359);
#381 = STYLED_ITEM('color',(#382),#230);
#382 = PRESENTATION_STYLE_ASSIGNMENT((#383));
#383 = SURFACE_STYLE_USAGE(.BOTH.,#384);
#384 = SURFACE_SIDE_STYLE('',(#385));
#385 = SURFACE_STYLE_FILL_AREA(#386);
#386 = FILL_AREA_STYLE('',(#387));
#387 = FILL_AREA_STYLE_COLOUR('',#359);
#388 = STYLED_ITEM('color',(#389),#260);
#389 = PRESENTATION_STYLE_ASSIGNMENT((#390));
#390 = SURFACE_STYLE_USAGE(.BOTH.,#391);
#391 = SURFACE_SIDE_STYLE('',(#392));
#392 = SURFACE_STYLE_FILL_AREA(#393);
#393 = FILL_AREA_STYLE('',(#394));
#394 = FILL_AREA_STYLE_COLOUR('',#359);
#395 = STYLED_ITEM('color',(#396),#290);
#396 = PRESENTATION_STYLE_ASSIGNMENT((#397));
#397 = SURFACE_STYLE_USAGE(.BOTH.,#398);
#398 = SURFACE_SIDE_STYLE('',(#399));
#399 = SURFACE_STYLE_FILL_AREA(#400);
#400 = FILL_AREA_STYLE('',(#401));
#401 = FILL_AREA_STYLE_COLOUR('',#359);
#402 = STYLED_ITEM('color',(#403),#299);
#403 = PRESENTATION_STYLE_ASSIGNMENT((#404));
#404 = SURFACE_STYLE_USAGE(.BOTH.,#405);
#405 = SURFACE_SIDE_STYLE('',(#406));
#406 = SURFACE_STYLE_FILL_AREA(#407);
#407 = FILL_AREA_STYLE('',(#408));
#408 = FILL_AREA_STYLE_COLOUR('',#359);
ENDSEC;
END-ISO-10303-21;
