ISO-10303-21;
HEADER;
FILE_DESCRIPTION(('FreeCAD Model'),'2;1');
FILE_NAME(
'D:/KiCAD/packages3D-source/Resistors_SMD.pretty\\
R_MicroMELF_MMU-0102.step','2017-04-30T13:44:44',('kicad StepUp'),(
    'ksu MCAD'),'Open CASCADE STEP processor 7.1','FreeCAD','Unknown');
FILE_SCHEMA(('AUTOMOTIVE_DESIGN_CC2 { 1 2 10303 214 -1 1 5 4 }'));
ENDSEC;
DATA;
#1 = APPLICATION_PROTOCOL_DEFINITION('committee draft',
  'automotive_design',1997,#2);
#2 = APPLICATION_CONTEXT(
  'core data for automotive mechanical design processes');
#3 = SHAPE_DEFINITION_REPRESENTATION(#4,#10);
#4 = PRODUCT_DEFINITION_SHAPE('','',#5);
#5 = PRODUCT_DEFINITION('design','',#6,#9);
#6 = PRODUCT_DEFINITION_FORMATION('','',#7);
#7 = PRODUCT('R_MicroMELF_MMU-0102','R_MicroMELF_MMU-0102','',(#8));
#8 = MECHANICAL_CONTEXT('',#2,'mechanical');
#9 = PRODUCT_DEFINITION_CONTEXT('part definition',#2,'design');
#10 = ADVANCED_BREP_SHAPE_REPRESENTATION('',(#11,#15),#218);
#11 = AXIS2_PLACEMENT_3D('',#12,#13,#14);
#12 = CARTESIAN_POINT('',(0.E+000,0.E+000,0.E+000));
#13 = DIRECTION('',(0.E+000,0.E+000,1.));
#14 = DIRECTION('',(1.,0.E+000,-0.E+000));
#15 = MANIFOLD_SOLID_BREP('',#16);
#16 = CLOSED_SHELL('',(#17,#34,#64,#89,#109,#134,#154,#179,#209));
#17 = ADVANCED_FACE('',(#18),#29,.F.);
#18 = FACE_BOUND('',#19,.T.);
#19 = EDGE_LOOP('',(#20));
#20 = ORIENTED_EDGE('',*,*,#21,.F.);
#21 = EDGE_CURVE('',#22,#22,#24,.T.);
#22 = VERTEX_POINT('',#23);
#23 = CARTESIAN_POINT('',(-1.1,-2.22044604925E-017,0.1));
#24 = CIRCLE('',#25,0.45);
#25 = AXIS2_PLACEMENT_3D('',#26,#27,#28);
#26 = CARTESIAN_POINT('',(-1.1,-1.221245327088E-016,0.55));
#27 = DIRECTION('',(1.,-0.E+000,0.E+000));
#28 = DIRECTION('',(0.E+000,2.22044604925E-016,-1.));
#29 = PLANE('',#30);
#30 = AXIS2_PLACEMENT_3D('',#31,#32,#33);
#31 = CARTESIAN_POINT('',(-1.1,-1.221245327088E-016,0.55));
#32 = DIRECTION('',(1.,0.E+000,0.E+000));
#33 = DIRECTION('',(0.E+000,2.22044604925E-016,-1.));
#34 = ADVANCED_FACE('',(#35),#55,.T.);
#35 = FACE_BOUND('',#36,.T.);
#36 = EDGE_LOOP('',(#37,#38,#47,#54));
#37 = ORIENTED_EDGE('',*,*,#21,.T.);
#38 = ORIENTED_EDGE('',*,*,#39,.T.);
#39 = EDGE_CURVE('',#22,#40,#42,.T.);
#40 = VERTEX_POINT('',#41);
#41 = CARTESIAN_POINT('',(-1.,-2.698744011656E-033,1.215406252526E-017)
  );
#42 = CIRCLE('',#43,0.1);
#43 = AXIS2_PLACEMENT_3D('',#44,#45,#46);
#44 = CARTESIAN_POINT('',(-1.,-2.22044604925E-017,0.1));
#45 = DIRECTION('',(0.E+000,-1.,-2.22044604925E-016));
#46 = DIRECTION('',(1.,0.E+000,0.E+000));
#47 = ORIENTED_EDGE('',*,*,#48,.F.);
#48 = EDGE_CURVE('',#40,#40,#49,.T.);
#49 = CIRCLE('',#50,0.55);
#50 = AXIS2_PLACEMENT_3D('',#51,#52,#53);
#51 = CARTESIAN_POINT('',(-1.,-1.221245327088E-016,0.55));
#52 = DIRECTION('',(1.,-0.E+000,0.E+000));
#53 = DIRECTION('',(0.E+000,2.22044604925E-016,-1.));
#54 = ORIENTED_EDGE('',*,*,#39,.F.);
#55 = SURFACE_OF_REVOLUTION('',#56,#61);
#56 = CIRCLE('',#57,0.1);
#57 = AXIS2_PLACEMENT_3D('',#58,#59,#60);
#58 = CARTESIAN_POINT('',(-1.,-2.22044604925E-017,0.1));
#59 = DIRECTION('',(0.E+000,-1.,-2.22044604925E-016));
#60 = DIRECTION('',(1.,0.E+000,0.E+000));
#61 = AXIS1_PLACEMENT('',#62,#63);
#62 = CARTESIAN_POINT('',(-8.9,-1.221245327088E-016,0.55));
#63 = DIRECTION('',(1.,0.E+000,0.E+000));
#64 = ADVANCED_FACE('',(#65),#84,.T.);
#65 = FACE_BOUND('',#66,.T.);
#66 = EDGE_LOOP('',(#67,#68,#76,#83));
#67 = ORIENTED_EDGE('',*,*,#48,.T.);
#68 = ORIENTED_EDGE('',*,*,#69,.T.);
#69 = EDGE_CURVE('',#40,#70,#72,.T.);
#70 = VERTEX_POINT('',#71);
#71 = CARTESIAN_POINT('',(-0.6,-2.316000925602E-033,1.043034090553E-017)
  );
#72 = LINE('',#73,#74);
#73 = CARTESIAN_POINT('',(-1.,-2.316000925602E-033,1.043034090553E-017)
  );
#74 = VECTOR('',#75,1.);
#75 = DIRECTION('',(1.,0.E+000,0.E+000));
#76 = ORIENTED_EDGE('',*,*,#77,.F.);
#77 = EDGE_CURVE('',#70,#70,#78,.T.);
#78 = CIRCLE('',#79,0.55);
#79 = AXIS2_PLACEMENT_3D('',#80,#81,#82);
#80 = CARTESIAN_POINT('',(-0.6,-1.221245327088E-016,0.55));
#81 = DIRECTION('',(1.,-0.E+000,0.E+000));
#82 = DIRECTION('',(0.E+000,2.22044604925E-016,-1.));
#83 = ORIENTED_EDGE('',*,*,#69,.F.);
#84 = CYLINDRICAL_SURFACE('',#85,0.55);
#85 = AXIS2_PLACEMENT_3D('',#86,#87,#88);
#86 = CARTESIAN_POINT('',(-1.,-1.221245327088E-016,0.55));
#87 = DIRECTION('',(1.,0.E+000,0.E+000));
#88 = DIRECTION('',(0.E+000,2.22044604925E-016,-1.));
#89 = ADVANCED_FACE('',(#90,#93),#104,.T.);
#90 = FACE_BOUND('',#91,.T.);
#91 = EDGE_LOOP('',(#92));
#92 = ORIENTED_EDGE('',*,*,#77,.T.);
#93 = FACE_BOUND('',#94,.T.);
#94 = EDGE_LOOP('',(#95));
#95 = ORIENTED_EDGE('',*,*,#96,.T.);
#96 = EDGE_CURVE('',#97,#97,#99,.T.);
#97 = VERTEX_POINT('',#98);
#98 = CARTESIAN_POINT('',(-0.6,-5.551115123126E-018,2.5E-002));
#99 = CIRCLE('',#100,0.525);
#100 = AXIS2_PLACEMENT_3D('',#101,#102,#103);
#101 = CARTESIAN_POINT('',(-0.6,-1.221245327088E-016,0.55));
#102 = DIRECTION('',(-1.,0.E+000,0.E+000));
#103 = DIRECTION('',(0.E+000,2.22044604925E-016,-1.));
#104 = PLANE('',#105);
#105 = AXIS2_PLACEMENT_3D('',#106,#107,#108);
#106 = CARTESIAN_POINT('',(-0.6,-1.221245327088E-016,0.55));
#107 = DIRECTION('',(1.,0.E+000,0.E+000));
#108 = DIRECTION('',(0.E+000,2.22044604925E-016,-1.));
#109 = ADVANCED_FACE('',(#110),#129,.T.);
#110 = FACE_BOUND('',#111,.T.);
#111 = EDGE_LOOP('',(#112,#121,#127,#128));
#112 = ORIENTED_EDGE('',*,*,#113,.T.);
#113 = EDGE_CURVE('',#114,#114,#116,.T.);
#114 = VERTEX_POINT('',#115);
#115 = CARTESIAN_POINT('',(0.6,-5.551115123126E-018,2.5E-002));
#116 = CIRCLE('',#117,0.525);
#117 = AXIS2_PLACEMENT_3D('',#118,#119,#120);
#118 = CARTESIAN_POINT('',(0.6,-1.221245327088E-016,0.55));
#119 = DIRECTION('',(-1.,0.E+000,0.E+000));
#120 = DIRECTION('',(0.E+000,2.22044604925E-016,-1.));
#121 = ORIENTED_EDGE('',*,*,#122,.T.);
#122 = EDGE_CURVE('',#114,#97,#123,.T.);
#123 = LINE('',#124,#125);
#124 = CARTESIAN_POINT('',(0.85,-5.551115123126E-018,2.5E-002));
#125 = VECTOR('',#126,1.);
#126 = DIRECTION('',(-1.,-0.E+000,0.E+000));
#127 = ORIENTED_EDGE('',*,*,#96,.F.);
#128 = ORIENTED_EDGE('',*,*,#122,.F.);
#129 = CYLINDRICAL_SURFACE('',#130,0.525);
#130 = AXIS2_PLACEMENT_3D('',#131,#132,#133);
#131 = CARTESIAN_POINT('',(0.85,-1.221245327088E-016,0.55));
#132 = DIRECTION('',(-1.,0.E+000,0.E+000));
#133 = DIRECTION('',(0.E+000,2.22044604925E-016,-1.));
#134 = ADVANCED_FACE('',(#135,#146),#149,.F.);
#135 = FACE_BOUND('',#136,.F.);
#136 = EDGE_LOOP('',(#137));
#137 = ORIENTED_EDGE('',*,*,#138,.T.);
#138 = EDGE_CURVE('',#139,#139,#141,.T.);
#139 = VERTEX_POINT('',#140);
#140 = CARTESIAN_POINT('',(0.6,-3.694155566668E-033,1.66369976335E-017)
  );
#141 = CIRCLE('',#142,0.55);
#142 = AXIS2_PLACEMENT_3D('',#143,#144,#145);
#143 = CARTESIAN_POINT('',(0.6,-1.221245327088E-016,0.55));
#144 = DIRECTION('',(1.,-0.E+000,0.E+000));
#145 = DIRECTION('',(0.E+000,2.22044604925E-016,-1.));
#146 = FACE_BOUND('',#147,.F.);
#147 = EDGE_LOOP('',(#148));
#148 = ORIENTED_EDGE('',*,*,#113,.T.);
#149 = PLANE('',#150);
#150 = AXIS2_PLACEMENT_3D('',#151,#152,#153);
#151 = CARTESIAN_POINT('',(0.6,-1.221245327088E-016,0.55));
#152 = DIRECTION('',(1.,0.E+000,0.E+000));
#153 = DIRECTION('',(0.E+000,2.22044604925E-016,-1.));
#154 = ADVANCED_FACE('',(#155),#174,.T.);
#155 = FACE_BOUND('',#156,.T.);
#156 = EDGE_LOOP('',(#157,#158,#166,#173));
#157 = ORIENTED_EDGE('',*,*,#138,.T.);
#158 = ORIENTED_EDGE('',*,*,#159,.T.);
#159 = EDGE_CURVE('',#139,#160,#162,.T.);
#160 = VERTEX_POINT('',#161);
#161 = CARTESIAN_POINT('',(1.,-3.387821738844E-033,1.525739272065E-017)
  );
#162 = LINE('',#163,#164);
#163 = CARTESIAN_POINT('',(0.6,-3.694155566668E-033,1.66369976335E-017)
  );
#164 = VECTOR('',#165,1.);
#165 = DIRECTION('',(1.,0.E+000,0.E+000));
#166 = ORIENTED_EDGE('',*,*,#167,.F.);
#167 = EDGE_CURVE('',#160,#160,#168,.T.);
#168 = CIRCLE('',#169,0.55);
#169 = AXIS2_PLACEMENT_3D('',#170,#171,#172);
#170 = CARTESIAN_POINT('',(1.,-1.221245327088E-016,0.55));
#171 = DIRECTION('',(1.,-0.E+000,0.E+000));
#172 = DIRECTION('',(0.E+000,2.22044604925E-016,-1.));
#173 = ORIENTED_EDGE('',*,*,#159,.F.);
#174 = CYLINDRICAL_SURFACE('',#175,0.55);
#175 = AXIS2_PLACEMENT_3D('',#176,#177,#178);
#176 = CARTESIAN_POINT('',(0.6,-1.221245327088E-016,0.55));
#177 = DIRECTION('',(1.,0.E+000,0.E+000));
#178 = DIRECTION('',(0.E+000,2.22044604925E-016,-1.));
#179 = ADVANCED_FACE('',(#180),#200,.T.);
#180 = FACE_BOUND('',#181,.T.);
#181 = EDGE_LOOP('',(#182,#183,#192,#199));
#182 = ORIENTED_EDGE('',*,*,#167,.T.);
#183 = ORIENTED_EDGE('',*,*,#184,.T.);
#184 = EDGE_CURVE('',#160,#185,#187,.T.);
#185 = VERTEX_POINT('',#186);
#186 = CARTESIAN_POINT('',(1.1,-2.22044604925E-017,0.1));
#187 = CIRCLE('',#188,0.1);
#188 = AXIS2_PLACEMENT_3D('',#189,#190,#191);
#189 = CARTESIAN_POINT('',(1.,-2.22044604925E-017,0.1));
#190 = DIRECTION('',(0.E+000,-1.,-2.22044604925E-016));
#191 = DIRECTION('',(1.,0.E+000,0.E+000));
#192 = ORIENTED_EDGE('',*,*,#193,.F.);
#193 = EDGE_CURVE('',#185,#185,#194,.T.);
#194 = CIRCLE('',#195,0.45);
#195 = AXIS2_PLACEMENT_3D('',#196,#197,#198);
#196 = CARTESIAN_POINT('',(1.1,-1.221245327088E-016,0.55));
#197 = DIRECTION('',(1.,-0.E+000,0.E+000));
#198 = DIRECTION('',(0.E+000,2.22044604925E-016,-1.));
#199 = ORIENTED_EDGE('',*,*,#184,.F.);
#200 = SURFACE_OF_REVOLUTION('',#201,#206);
#201 = CIRCLE('',#202,0.1);
#202 = AXIS2_PLACEMENT_3D('',#203,#204,#205);
#203 = CARTESIAN_POINT('',(1.,-2.22044604925E-017,0.1));
#204 = DIRECTION('',(0.E+000,-1.,-2.22044604925E-016));
#205 = DIRECTION('',(1.,0.E+000,0.E+000));
#206 = AXIS1_PLACEMENT('',#207,#208);
#207 = CARTESIAN_POINT('',(-8.9,-1.221245327088E-016,0.55));
#208 = DIRECTION('',(1.,0.E+000,0.E+000));
#209 = ADVANCED_FACE('',(#210),#213,.T.);
#210 = FACE_BOUND('',#211,.T.);
#211 = EDGE_LOOP('',(#212));
#212 = ORIENTED_EDGE('',*,*,#193,.T.);
#213 = PLANE('',#214);
#214 = AXIS2_PLACEMENT_3D('',#215,#216,#217);
#215 = CARTESIAN_POINT('',(1.1,-1.221245327088E-016,0.55));
#216 = DIRECTION('',(1.,0.E+000,0.E+000));
#217 = DIRECTION('',(0.E+000,2.22044604925E-016,-1.));
#218 = ( GEOMETRIC_REPRESENTATION_CONTEXT(3) 
GLOBAL_UNCERTAINTY_ASSIGNED_CONTEXT((#222)) GLOBAL_UNIT_ASSIGNED_CONTEXT
((#219,#220,#221)) REPRESENTATION_CONTEXT('Context #1',
  '3D Context with UNIT and UNCERTAINTY') );
#219 = ( LENGTH_UNIT() NAMED_UNIT(*) SI_UNIT(.MILLI.,.METRE.) );
#220 = ( NAMED_UNIT(*) PLANE_ANGLE_UNIT() SI_UNIT($,.RADIAN.) );
#221 = ( NAMED_UNIT(*) SI_UNIT($,.STERADIAN.) SOLID_ANGLE_UNIT() );
#222 = UNCERTAINTY_MEASURE_WITH_UNIT(LENGTH_MEASURE(1.E-007),#219,
  'distance_accuracy_value','confusion accuracy');
#223 = PRODUCT_TYPE('part',$,(#7));
#224 = MECHANICAL_DESIGN_GEOMETRIC_PRESENTATION_REPRESENTATION('',(#225,
    #233,#240,#247,#254,#262,#269,#276,#283),#218);
#225 = STYLED_ITEM('color',(#226),#17);
#226 = PRESENTATION_STYLE_ASSIGNMENT((#227));
#227 = SURFACE_STYLE_USAGE(.BOTH.,#228);
#228 = SURFACE_SIDE_STYLE('',(#229));
#229 = SURFACE_STYLE_FILL_AREA(#230);
#230 = FILL_AREA_STYLE('',(#231));
#231 = FILL_AREA_STYLE_COLOUR('',#232);
#232 = COLOUR_RGB('',0.824000000954,0.819999992847,0.78100001812);
#233 = STYLED_ITEM('color',(#234),#34);
#234 = PRESENTATION_STYLE_ASSIGNMENT((#235));
#235 = SURFACE_STYLE_USAGE(.BOTH.,#236);
#236 = SURFACE_SIDE_STYLE('',(#237));
#237 = SURFACE_STYLE_FILL_AREA(#238);
#238 = FILL_AREA_STYLE('',(#239));
#239 = FILL_AREA_STYLE_COLOUR('',#232);
#240 = STYLED_ITEM('color',(#241),#64);
#241 = PRESENTATION_STYLE_ASSIGNMENT((#242));
#242 = SURFACE_STYLE_USAGE(.BOTH.,#243);
#243 = SURFACE_SIDE_STYLE('',(#244));
#244 = SURFACE_STYLE_FILL_AREA(#245);
#245 = FILL_AREA_STYLE('',(#246));
#246 = FILL_AREA_STYLE_COLOUR('',#232);
#247 = STYLED_ITEM('color',(#248),#89);
#248 = PRESENTATION_STYLE_ASSIGNMENT((#249));
#249 = SURFACE_STYLE_USAGE(.BOTH.,#250);
#250 = SURFACE_SIDE_STYLE('',(#251));
#251 = SURFACE_STYLE_FILL_AREA(#252);
#252 = FILL_AREA_STYLE('',(#253));
#253 = FILL_AREA_STYLE_COLOUR('',#232);
#254 = STYLED_ITEM('color',(#255),#109);
#255 = PRESENTATION_STYLE_ASSIGNMENT((#256));
#256 = SURFACE_STYLE_USAGE(.BOTH.,#257);
#257 = SURFACE_SIDE_STYLE('',(#258));
#258 = SURFACE_STYLE_FILL_AREA(#259);
#259 = FILL_AREA_STYLE('',(#260));
#260 = FILL_AREA_STYLE_COLOUR('',#261);
#261 = COLOUR_RGB('',0.883000016212,0.711000025272,0.49200001359);
#262 = STYLED_ITEM('color',(#263),#134);
#263 = PRESENTATION_STYLE_ASSIGNMENT((#264));
#264 = SURFACE_STYLE_USAGE(.BOTH.,#265);
#265 = SURFACE_SIDE_STYLE('',(#266));
#266 = SURFACE_STYLE_FILL_AREA(#267);
#267 = FILL_AREA_STYLE('',(#268));
#268 = FILL_AREA_STYLE_COLOUR('',#232);
#269 = STYLED_ITEM('color',(#270),#154);
#270 = PRESENTATION_STYLE_ASSIGNMENT((#271));
#271 = SURFACE_STYLE_USAGE(.BOTH.,#272);
#272 = SURFACE_SIDE_STYLE('',(#273));
#273 = SURFACE_STYLE_FILL_AREA(#274);
#274 = FILL_AREA_STYLE('',(#275));
#275 = FILL_AREA_STYLE_COLOUR('',#232);
#276 = STYLED_ITEM('color',(#277),#179);
#277 = PRESENTATION_STYLE_ASSIGNMENT((#278));
#278 = SURFACE_STYLE_USAGE(.BOTH.,#279);
#279 = SURFACE_SIDE_STYLE('',(#280));
#280 = SURFACE_STYLE_FILL_AREA(#281);
#281 = FILL_AREA_STYLE('',(#282));
#282 = FILL_AREA_STYLE_COLOUR('',#232);
#283 = STYLED_ITEM('color',(#284),#209);
#284 = PRESENTATION_STYLE_ASSIGNMENT((#285));
#285 = SURFACE_STYLE_USAGE(.BOTH.,#286);
#286 = SURFACE_SIDE_STYLE('',(#287));
#287 = SURFACE_STYLE_FILL_AREA(#288);
#288 = FILL_AREA_STYLE('',(#289));
#289 = FILL_AREA_STYLE_COLOUR('',#232);
ENDSEC;
END-ISO-10303-21;
