ISO-10303-21;
HEADER;
/* C_Disc_D7.5mm_W4.4mm_P5.00mm.step 3D STEP model for use in ECAD systems
 * Copyright (C) 2017, kicad StepUp
 * 
 * This program is free software: you can redistribute it and/or modify
 * it under the terms of the GNU General Public License as published by
 * the Free Software Foundation, either version 3 of the License, or
 * any later version.
 * 
 * This program is distributed in the hope that it will be useful,
 * but WITHOUT ANY WARRANTY; without even the implied warranty of
 * MERCHANTABILITY or FITNESS FOR A PARTICULAR PURPOSE.  See the
 * GNU General Public License for more details.
 * 
 * You should have received a copy of the GNU General Public License
 * along with this program.  If not, see http://www.gnu.org/licenses/.
 * 
 * As a special exception, if you create a design which uses this symbol,
 * and embed this symbol or unaltered portions of this symbol into the design,
 * this symbol does not by itself cause the resulting design to be covered by
 * the GNU General Public License.
 * This exception does not however invalidate any other reasons why the design
 * itself might be covered by the GNU General Public License. 
 * If you modify this symbol, you may extend this exception to your version of the symbol,
 * but you are not obligated to do so.
 * If you do not wish to do so, delete this exception statement from your version
 * Risk disclaimer
 * *USE 3D CAD DATA AT YOUR OWN RISK*
 * *DO NOT RELY UPON ANY INFORMATION FOUND HERE WITHOUT INDEPENDENT VERIFICATION.*
 * 
 */

FILE_DESCRIPTION(
/* description */ ('model of C_Disc_D7.5mm_W4.4mm_P5.00mm'),
/* implementation_level */ '2;1');

FILE_NAME(
/* name */ 'C_Disc_D7.5mm_W4.4mm_P5.00mm.step',
/* time_stamp */ '2017-07-29T15:42:26',
/* author */ ('kicad StepUp','ksu'),
/* organization */ ('FreeCAD'),
/* preprocessor_version */ 'OCC',
/* originating_system */ 'kicad StepUp',
/* authorisation */ '');

FILE_SCHEMA(('AUTOMOTIVE_DESIGN_CC2 { 1 2 10303 214 -1 1 5 4 }'));
ENDSEC;

DATA;
#1 = APPLICATION_PROTOCOL_DEFINITION('committee draft',
'automotive_design',1997,#2);
#2 = APPLICATION_CONTEXT(
'core data for automotive mechanical design processes');
#3 = SHAPE_DEFINITION_REPRESENTATION(#4,#10);
#4 = PRODUCT_DEFINITION_SHAPE('','',#5);
#5 = PRODUCT_DEFINITION('design','',#6,#9);
#6 = PRODUCT_DEFINITION_FORMATION('','',#7);
#7 = PRODUCT('C_Disc_D75mm_W44mm_P500mm','C_Disc_D75mm_W44mm_P500mm','',
(#8));
#8 = MECHANICAL_CONTEXT('',#2,'mechanical');
#9 = PRODUCT_DEFINITION_CONTEXT('part definition',#2,'design');
#10 = ADVANCED_BREP_SHAPE_REPRESENTATION('',(#11,#15),#365);
#11 = AXIS2_PLACEMENT_3D('',#12,#13,#14);
#12 = CARTESIAN_POINT('',(0.,0.,0.));
#13 = DIRECTION('',(0.,0.,1.));
#14 = DIRECTION('',(1.,0.,-0.));
#15 = MANIFOLD_SOLID_BREP('',#16);
#16 = CLOSED_SHELL('',(#17,#34,#157,#251,#329,#356));
#17 = ADVANCED_FACE('',(#18),#29,.T.);
#18 = FACE_BOUND('',#19,.F.);
#19 = EDGE_LOOP('',(#20));
#20 = ORIENTED_EDGE('',*,*,#21,.T.);
#21 = EDGE_CURVE('',#22,#22,#24,.T.);
#22 = VERTEX_POINT('',#23);
#23 = CARTESIAN_POINT('',(5.,0.25,-2.));
#24 = CIRCLE('',#25,0.25);
#25 = AXIS2_PLACEMENT_3D('',#26,#27,#28);
#26 = CARTESIAN_POINT('',(5.,0.,-2.));
#27 = DIRECTION('',(0.,-0.,1.));
#28 = DIRECTION('',(1.144237745222E-17,1.,0.));
#29 = PLANE('',#30);
#30 = AXIS2_PLACEMENT_3D('',#31,#32,#33);
#31 = CARTESIAN_POINT('',(5.,0.25,-2.));
#32 = DIRECTION('',(-0.,0.,-1.));
#33 = DIRECTION('',(-1.144237745222E-17,-1.,0.));
#34 = ADVANCED_FACE('',(#35),#152,.T.);
#35 = FACE_BOUND('',#36,.F.);
#36 = EDGE_LOOP('',(#37,#38,#46,#67,#116,#151));
#37 = ORIENTED_EDGE('',*,*,#21,.F.);
#38 = ORIENTED_EDGE('',*,*,#39,.T.);
#39 = EDGE_CURVE('',#22,#40,#42,.T.);
#40 = VERTEX_POINT('',#41);
#41 = CARTESIAN_POINT('',(5.,0.25,1.261180068764));
#42 = LINE('',#43,#44);
#43 = CARTESIAN_POINT('',(5.,0.25,-2.));
#44 = VECTOR('',#45,1.);
#45 = DIRECTION('',(0.,0.,1.));
#46 = ORIENTED_EDGE('',*,*,#47,.T.);
#47 = EDGE_CURVE('',#40,#48,#50,.T.);
#48 = VERTEX_POINT('',#49);
#49 = CARTESIAN_POINT('',(4.75,0.,0.85));
#50 = B_SPLINE_CURVE_WITH_KNOTS('',8,(#51,#52,#53,#54,#55,#56,#57,#58,
#59,#60,#61,#62,#63,#64,#65,#66),.UNSPECIFIED.,.F.,.F.,(9,7,9),(0.,
0.481285943992,1.),.UNSPECIFIED.);
#51 = CARTESIAN_POINT('',(5.,0.25,1.261180068764));
#52 = CARTESIAN_POINT('',(4.973887643715,0.249999997533,1.235963600627)
);
#53 = CARTESIAN_POINT('',(4.948996146587,0.246883206372,1.209683330056)
);
#54 = CARTESIAN_POINT('',(4.925341818168,0.241157514431,1.18280762702));
#55 = CARTESIAN_POINT('',(4.903028627356,0.233102340642,1.155677968451)
);
#56 = CARTESIAN_POINT('',(4.882120439867,0.222984172342,1.128566336549)
);
#57 = CARTESIAN_POINT('',(4.862679880765,0.210983339047,1.101661421852)
);
#58 = CARTESIAN_POINT('',(4.844745772813,0.19723874484,1.07509050375));
#59 = CARTESIAN_POINT('',(4.810727825288,0.165121055025,1.020695844008)
);
#60 = CARTESIAN_POINT('',(4.794991475396,0.146561008097,0.993087523719)
);
#61 = CARTESIAN_POINT('',(4.781212001473,0.126191980475,0.966172541162)
);
#62 = CARTESIAN_POINT('',(4.769562993984,0.104077549391,0.940123706121)
);
#63 = CARTESIAN_POINT('',(4.760260938413,8.030276057015E-02,
0.915156740538));
#64 = CARTESIAN_POINT('',(4.753626971366,5.495579843952E-02,
0.891566236852));
#65 = CARTESIAN_POINT('',(4.75,2.816849818472E-02,0.869680604129));
#66 = CARTESIAN_POINT('',(4.75,0.,0.85));
#67 = ORIENTED_EDGE('',*,*,#68,.T.);
#68 = EDGE_CURVE('',#48,#69,#71,.T.);
#69 = VERTEX_POINT('',#70);
#70 = CARTESIAN_POINT('',(5.25,0.,1.300490243204));
#71 = B_SPLINE_CURVE_WITH_KNOTS('',7,(#72,#73,#74,#75,#76,#77,#78,#79,
#80,#81,#82,#83,#84,#85,#86,#87,#88,#89,#90,#91,#92,#93,#94,#95,#96,
#97,#98,#99,#100,#101,#102,#103,#104,#105,#106,#107,#108,#109,#110,
#111,#112,#113,#114,#115),.UNSPECIFIED.,.F.,.F.,(8,6,6,6,6,6,6,8),(
0.,0.187294369226,0.365762690578,0.507214827995,0.640453680765,
0.800661887074,0.9012330027,1.),.UNSPECIFIED.);
#72 = CARTESIAN_POINT('',(4.75,0.,0.85));
#73 = CARTESIAN_POINT('',(4.75,-1.738666021263E-02,0.862147611652));
#74 = CARTESIAN_POINT('',(4.751410596042,-3.438621708969E-02,
0.875257654596));
#75 = CARTESIAN_POINT('',(4.754119425931,-5.099172354896E-02,
0.889247968067));
#76 = CARTESIAN_POINT('',(4.758061978327,-6.718511073143E-02,
0.90406823535));
#77 = CARTESIAN_POINT('',(4.763199179232,-8.294175649099E-02,
0.919684809671));
#78 = CARTESIAN_POINT('',(4.769510725048,-9.823163708767E-02,
0.936076607047));
#79 = CARTESIAN_POINT('',(4.784144479091,-0.127105739659,0.969598621155)
);
#80 = CARTESIAN_POINT('',(4.79235315967,-0.140726690125,0.986646542406)
);
#81 = CARTESIAN_POINT('',(4.801635459431,-0.153853841733,1.00438780118)
);
#82 = CARTESIAN_POINT('',(4.81201624428,-0.166437913533,1.022825927858)
);
#83 = CARTESIAN_POINT('',(4.823528788556,-0.178411938719,1.041959683231)
);
#84 = CARTESIAN_POINT('',(4.83622270114,-0.189687702201,1.061787538888)
);
#85 = CARTESIAN_POINT('',(4.861262092094,-0.208429925999,1.098599133304)
);
#86 = CARTESIAN_POINT('',(4.87311624581,-0.216188169756,1.115293964072)
);
#87 = CARTESIAN_POINT('',(4.885810743562,-0.223370202274,1.132433510649)
);
#88 = CARTESIAN_POINT('',(4.899397764324,-0.229890359346,1.15001178841)
);
#89 = CARTESIAN_POINT('',(4.913923143617,-0.235625333748,1.167988177689)
);
#90 = CARTESIAN_POINT('',(4.92941658294,-0.240424565527,1.186282910186)
);
#91 = CARTESIAN_POINT('',(4.961479789903,-0.247527648055,1.22221430631)
);
#92 = CARTESIAN_POINT('',(4.977966939608,-0.249967082977,1.239863287266)
);
#93 = CARTESIAN_POINT('',(4.99535760302,-0.251204396037,1.257553784316)
);
#94 = CARTESIAN_POINT('',(5.013530847423,-0.251002488868,1.274981266706)
);
#95 = CARTESIAN_POINT('',(5.032265476351,-0.249150625974,1.291750302399)
);
#96 = CARTESIAN_POINT('',(5.051233608135,-0.24546717956,1.307360145765)
);
#97 = CARTESIAN_POINT('',(5.092399741847,-0.233474350954,1.338118595068)
);
#98 = CARTESIAN_POINT('',(5.114339173016,-0.224418972066,1.352433352207)
);
#99 = CARTESIAN_POINT('',(5.13506039654,-0.212979790325,1.363628589052)
);
#100 = CARTESIAN_POINT('',(5.154135059994,-0.199495981946,1.371479145232
));
#101 = CARTESIAN_POINT('',(5.171211919617,-0.184393954099,1.3759448483)
);
#102 = CARTESIAN_POINT('',(5.186077471834,-0.16824392374,1.377283273005)
);
#103 = CARTESIAN_POINT('',(5.206585890276,-0.141393259467,1.375258763514
));
#104 = CARTESIAN_POINT('',(5.213852022638,-0.130572711185,1.373434127238
));
#105 = CARTESIAN_POINT('',(5.220366711363,-0.119443975756,1.370590671076
));
#106 = CARTESIAN_POINT('',(5.226091113501,-0.108143636672,1.366809147616
));
#107 = CARTESIAN_POINT('',(5.231034028923,-9.678701175519E-02,
1.362201985943));
#108 = CARTESIAN_POINT('',(5.235230005142,-8.546754479413E-02,
1.356889267661));
#109 = CARTESIAN_POINT('',(5.242142318934,-6.324596692601E-02,
1.345166237966));
#110 = CARTESIAN_POINT('',(5.244874794164,-5.237397443853E-02,
1.338796791663));
#111 = CARTESIAN_POINT('',(5.246982873655,-4.163691432149E-02,
1.33193712507));
#112 = CARTESIAN_POINT('',(5.248516766942,-3.103265086219E-02,
1.324640746622));
#113 = CARTESIAN_POINT('',(5.249513245338,-2.055960714713E-02,
1.316947845846));
#114 = CARTESIAN_POINT('',(5.25,-1.021615418008E-02,1.308889227083));
#115 = CARTESIAN_POINT('',(5.25,0.,1.300490243204));
#116 = ORIENTED_EDGE('',*,*,#117,.T.);
#117 = EDGE_CURVE('',#69,#40,#118,.T.);
#118 = B_SPLINE_CURVE_WITH_KNOTS('',7,(#119,#120,#121,#122,#123,#124,
#125,#126,#127,#128,#129,#130,#131,#132,#133,#134,#135,#136,#137,
#138,#139,#140,#141,#142,#143,#144,#145,#146,#147,#148,#149,#150),
.UNSPECIFIED.,.F.,.F.,(8,6,6,6,6,8),(0.,0.336952863318,0.519235680988,
0.629891633169,0.814407171628,1.),.UNSPECIFIED.);
#119 = CARTESIAN_POINT('',(5.25,0.,1.300490243204));
#120 = CARTESIAN_POINT('',(5.25,1.066183416237E-02,1.309255632965));
#121 = CARTESIAN_POINT('',(5.249471130375,2.17443927638E-02,
1.317883485769));
#122 = CARTESIAN_POINT('',(5.248326683112,3.337582527277E-02,
1.326392041167));
#123 = CARTESIAN_POINT('',(5.246480073666,4.563912796903E-02,
1.334763516535));
#124 = CARTESIAN_POINT('',(5.243676054631,5.87155646403E-02,
1.342893097543));
#125 = CARTESIAN_POINT('',(5.239768630106,7.264831398126E-02,
1.350667656651));
#126 = CARTESIAN_POINT('',(5.230915396476,9.620889652388E-02,
1.361601783356));
#127 = CARTESIAN_POINT('',(5.227309360718,0.104766211038,1.365188125091)
);
#128 = CARTESIAN_POINT('',(5.223067779975,0.113793475322,1.368537952059)
);
#129 = CARTESIAN_POINT('',(5.218016428477,0.12339668,1.371563559893));
#130 = CARTESIAN_POINT('',(5.211944379078,0.133603995707,1.374073863114)
);
#131 = CARTESIAN_POINT('',(5.204604003258,0.144365773088,1.375774395127)
);
#132 = CARTESIAN_POINT('',(5.190312398988,0.162346757122,1.37656653428)
);
#133 = CARTESIAN_POINT('',(5.184619769676,0.168943389582,1.376402847729)
);
#134 = CARTESIAN_POINT('',(5.178662174047,0.175303214138,1.375770596605)
);
#135 = CARTESIAN_POINT('',(5.172471943665,0.181392415138,1.374674134499)
);
#136 = CARTESIAN_POINT('',(5.166084650792,0.187184587318,1.37312782056)
);
#137 = CARTESIAN_POINT('',(5.159539108389,0.192660735798,1.3711560195));
#138 = CARTESIAN_POINT('',(5.141769117911,0.206394315259,1.36485300562)
);
#139 = CARTESIAN_POINT('',(5.130322517634,0.214077599418,1.359817526125)
);
#140 = CARTESIAN_POINT('',(5.118714753166,0.220811240535,1.353832072206)
);
#141 = CARTESIAN_POINT('',(5.10705586316,0.226638340758,1.347052610635)
);
#142 = CARTESIAN_POINT('',(5.095425253593,0.231619929164,1.339618398262)
);
#143 = CARTESIAN_POINT('',(5.083885443648,0.23580802504,1.331642244432)
);
#144 = CARTESIAN_POINT('',(5.06099401515,0.242741812767,1.314745179427)
);
#145 = CARTESIAN_POINT('',(5.049998824699,0.245371257936,1.306080864474)
);
#146 = CARTESIAN_POINT('',(5.039390531704,0.247329016266,1.29727799477)
);
#147 = CARTESIAN_POINT('',(5.029119917262,0.248710823787,1.288368874515)
);
#148 = CARTESIAN_POINT('',(5.019152368399,0.249582467236,1.279374846604)
);
#149 = CARTESIAN_POINT('',(5.009454426328,0.249999999107,1.270310122142)
);
#150 = CARTESIAN_POINT('',(5.,0.25,1.261180068764));
#151 = ORIENTED_EDGE('',*,*,#39,.F.);
#152 = CYLINDRICAL_SURFACE('',#153,0.25);
#153 = AXIS2_PLACEMENT_3D('',#154,#155,#156);
#154 = CARTESIAN_POINT('',(5.,0.,-2.));
#155 = DIRECTION('',(0.,-0.,-1.));
#156 = DIRECTION('',(1.144237745222E-17,1.,0.));
#157 = ADVANCED_FACE('',(#158),#246,.T.);
#158 = FACE_BOUND('',#159,.T.);
#159 = EDGE_LOOP('',(#160,#171,#172,#179,#180,#181,#190,#239));
#160 = ORIENTED_EDGE('',*,*,#161,.F.);
#161 = EDGE_CURVE('',#162,#164,#166,.T.);
#162 = VERTEX_POINT('',#163);
#163 = CARTESIAN_POINT('',(2.5,2.2,3.85));
#164 = VERTEX_POINT('',#165);
#165 = CARTESIAN_POINT('',(-1.25,0.,3.85));
#166 = CIRCLE('',#167,4.296022727273);
#167 = AXIS2_PLACEMENT_3D('',#168,#169,#170);
#168 = CARTESIAN_POINT('',(2.5,-2.096022727273,3.85));
#169 = DIRECTION('',(0.,0.,1.));
#170 = DIRECTION('',(-4.39331740468E-16,1.,0.));
#171 = ORIENTED_EDGE('',*,*,#161,.T.);
#172 = ORIENTED_EDGE('',*,*,#173,.F.);
#173 = EDGE_CURVE('',#69,#164,#174,.T.);
#174 = CIRCLE('',#175,3.75);
#175 = AXIS2_PLACEMENT_3D('',#176,#177,#178);
#176 = CARTESIAN_POINT('',(2.5,0.,3.85));
#177 = DIRECTION('',(0.,-1.,0.));
#178 = DIRECTION('',(-1.,0.,0.));
#179 = ORIENTED_EDGE('',*,*,#117,.T.);
#180 = ORIENTED_EDGE('',*,*,#47,.T.);
#181 = ORIENTED_EDGE('',*,*,#182,.F.);
#182 = EDGE_CURVE('',#183,#48,#185,.T.);
#183 = VERTEX_POINT('',#184);
#184 = CARTESIAN_POINT('',(0.25,0.,0.85));
#185 = CIRCLE('',#186,3.75);
#186 = AXIS2_PLACEMENT_3D('',#187,#188,#189);
#187 = CARTESIAN_POINT('',(2.5,0.,3.85));
#188 = DIRECTION('',(0.,-1.,0.));
#189 = DIRECTION('',(-1.,0.,0.));
#190 = ORIENTED_EDGE('',*,*,#191,.T.);
#191 = EDGE_CURVE('',#183,#192,#194,.T.);
#192 = VERTEX_POINT('',#193);
#193 = CARTESIAN_POINT('',(-0.25,0.,1.300490243204));
#194 = B_SPLINE_CURVE_WITH_KNOTS('',7,(#195,#196,#197,#198,#199,#200,
#201,#202,#203,#204,#205,#206,#207,#208,#209,#210,#211,#212,#213,
#214,#215,#216,#217,#218,#219,#220,#221,#222,#223,#224,#225,#226,
#227,#228,#229,#230,#231,#232,#233,#234,#235,#236,#237,#238),
.UNSPECIFIED.,.F.,.F.,(8,6,6,6,6,6,6,8),(0.,0.187294369224,
0.36576269055,0.50721482796,0.640453680714,0.800661887003,
0.901233002632,1.),.UNSPECIFIED.);
#195 = CARTESIAN_POINT('',(0.25,0.,0.85));
#196 = CARTESIAN_POINT('',(0.25,1.738666021323E-02,0.862147611653));
#197 = CARTESIAN_POINT('',(0.248589403957,3.438621709087E-02,
0.875257654597));
#198 = CARTESIAN_POINT('',(0.245880574068,5.09917235507E-02,
0.889247968068));
#199 = CARTESIAN_POINT('',(0.241938021673,6.718511073369E-02,
0.904068235352));
#200 = CARTESIAN_POINT('',(0.236800820767,8.294175649373E-02,
0.919684809674));
#201 = CARTESIAN_POINT('',(0.23048927495,9.823163709085E-02,
0.936076607051));
#202 = CARTESIAN_POINT('',(0.215855520908,0.127105739661,0.969598621158)
);
#203 = CARTESIAN_POINT('',(0.207646840329,0.140726690126,0.986646542407)
);
#204 = CARTESIAN_POINT('',(0.19836454057,0.153853841733,1.00438780118));
#205 = CARTESIAN_POINT('',(0.187983755721,0.166437913531,1.022825927855)
);
#206 = CARTESIAN_POINT('',(0.176471211446,0.178411938716,1.041959683226)
);
#207 = CARTESIAN_POINT('',(0.163777298865,0.189687702197,1.061787538881)
);
#208 = CARTESIAN_POINT('',(0.138737907913,0.208429925995,1.098599133294)
);
#209 = CARTESIAN_POINT('',(0.126883754198,0.216188169751,1.115293964062)
);
#210 = CARTESIAN_POINT('',(0.114189256446,0.22337020227,1.132433510638)
);
#211 = CARTESIAN_POINT('',(0.100602235684,0.229890359342,1.150011788398)
);
#212 = CARTESIAN_POINT('',(8.607685639207E-02,0.235625333745,
1.167988177678));
#213 = CARTESIAN_POINT('',(7.058341706976E-02,0.240424565524,
1.186282910174));
#214 = CARTESIAN_POINT('',(3.852021010896E-02,0.247527648053,
1.222214306297));
#215 = CARTESIAN_POINT('',(2.203306040581E-02,0.249967082975,
1.239863287251));
#216 = CARTESIAN_POINT('',(4.642396996298E-03,0.251204396036,
1.257553784301));
#217 = CARTESIAN_POINT('',(-1.353084740467E-02,0.251002488869,
1.274981266689));
#218 = CARTESIAN_POINT('',(-3.226547633106E-02,0.249150625976,
1.291750302381));
#219 = CARTESIAN_POINT('',(-5.123360811368E-02,0.245467179565,
1.307360145747));
#220 = CARTESIAN_POINT('',(-9.239974182333E-02,0.233474350964,
1.338118595052));
#221 = CARTESIAN_POINT('',(-0.114339172991,0.224418972078,1.352433352193
));
#222 = CARTESIAN_POINT('',(-0.135060396516,0.21297979034,1.36362858904)
);
#223 = CARTESIAN_POINT('',(-0.15413505997,0.199495981965,1.371479145223)
);
#224 = CARTESIAN_POINT('',(-0.171211919593,0.18439395412,1.375944848294)
);
#225 = CARTESIAN_POINT('',(-0.186077471812,0.168243923764,1.377283273003
));
#226 = CARTESIAN_POINT('',(-0.206585890258,0.141393259492,1.375258763518
));
#227 = CARTESIAN_POINT('',(-0.21385202262,0.130572711213,1.373434127244)
);
#228 = CARTESIAN_POINT('',(-0.220366711346,0.119443975788,1.370590671085
));
#229 = CARTESIAN_POINT('',(-0.226091113486,0.108143636704,1.366809147628
));
#230 = CARTESIAN_POINT('',(-0.23103402891,9.678701178506E-02,
1.362201985956));
#231 = CARTESIAN_POINT('',(-0.235230005132,8.546754482207E-02,
1.356889267675));
#232 = CARTESIAN_POINT('',(-0.242142318928,6.324596695189E-02,
1.345166237982));
#233 = CARTESIAN_POINT('',(-0.24487479416,5.237397445982E-02,
1.338796791677));
#234 = CARTESIAN_POINT('',(-0.246982873652,4.163691433832E-02,
1.331937125082));
#235 = CARTESIAN_POINT('',(-0.248516766941,3.103265087465E-02,
1.324640746631));
#236 = CARTESIAN_POINT('',(-0.249513245338,2.055960715533E-02,
1.316947845852));
#237 = CARTESIAN_POINT('',(-0.25,1.021615418413E-02,1.308889227086));
#238 = CARTESIAN_POINT('',(-0.25,0.,1.300490243204));
#239 = ORIENTED_EDGE('',*,*,#240,.F.);
#240 = EDGE_CURVE('',#164,#192,#241,.T.);
#241 = CIRCLE('',#242,3.75);
#242 = AXIS2_PLACEMENT_3D('',#243,#244,#245);
#243 = CARTESIAN_POINT('',(2.5,0.,3.85));
#244 = DIRECTION('',(0.,-1.,0.));
#245 = DIRECTION('',(-1.,0.,0.));
#246 = SPHERICAL_SURFACE('',#247,4.296022727273);
#247 = AXIS2_PLACEMENT_3D('',#248,#249,#250);
#248 = CARTESIAN_POINT('',(2.5,-2.096022727273,3.85));
#249 = DIRECTION('',(0.,-1.,0.));
#250 = DIRECTION('',(-1.,0.,0.));
#251 = ADVANCED_FACE('',(#252),#324,.T.);
#252 = FACE_BOUND('',#253,.T.);
#253 = EDGE_LOOP('',(#254,#263,#264,#301,#320,#321,#322,#323));
#254 = ORIENTED_EDGE('',*,*,#255,.F.);
#255 = EDGE_CURVE('',#164,#256,#258,.T.);
#256 = VERTEX_POINT('',#257);
#257 = CARTESIAN_POINT('',(2.5,-2.2,3.85));
#258 = CIRCLE('',#259,4.296022727273);
#259 = AXIS2_PLACEMENT_3D('',#260,#261,#262);
#260 = CARTESIAN_POINT('',(2.5,2.096022727273,3.85));
#261 = DIRECTION('',(0.,0.,1.));
#262 = DIRECTION('',(-0.872900409999,-0.487898426134,0.));
#263 = ORIENTED_EDGE('',*,*,#240,.T.);
#264 = ORIENTED_EDGE('',*,*,#265,.T.);
#265 = EDGE_CURVE('',#192,#266,#268,.T.);
#266 = VERTEX_POINT('',#267);
#267 = CARTESIAN_POINT('',(0.,-0.25,1.261180068764));
#268 = B_SPLINE_CURVE_WITH_KNOTS('',7,(#269,#270,#271,#272,#273,#274,
#275,#276,#277,#278,#279,#280,#281,#282,#283,#284,#285,#286,#287,
#288,#289,#290,#291,#292,#293,#294,#295,#296,#297,#298,#299,#300),
.UNSPECIFIED.,.F.,.F.,(8,6,6,6,6,8),(0.,0.336952863205,0.519235680867,
0.629891633063,0.814407171582,1.),.UNSPECIFIED.);
#269 = CARTESIAN_POINT('',(-0.25,0.,1.300490243204));
#270 = CARTESIAN_POINT('',(-0.25,-1.066183416071E-02,1.309255632964));
#271 = CARTESIAN_POINT('',(-0.249471130376,-2.174439276039E-02,
1.317883485766));
#272 = CARTESIAN_POINT('',(-0.248326683113,-3.337582526745E-02,
1.326392041163));
#273 = CARTESIAN_POINT('',(-0.246480073667,-4.563912796154E-02,
1.334763516529));
#274 = CARTESIAN_POINT('',(-0.243676054633,-5.871556463027E-02,
1.342893097537));
#275 = CARTESIAN_POINT('',(-0.239768630109,-7.26483139684E-02,
1.350667656643));
#276 = CARTESIAN_POINT('',(-0.230915396483,-9.620889650791E-02,
1.361601783349));
#277 = CARTESIAN_POINT('',(-0.227309360726,-0.104766211023,
1.365188125085));
#278 = CARTESIAN_POINT('',(-0.223067779983,-0.113793475307,
1.368537952054));
#279 = CARTESIAN_POINT('',(-0.218016428485,-0.123396679985,
1.371563559889));
#280 = CARTESIAN_POINT('',(-0.211944379087,-0.133603995693,
1.374073863111));
#281 = CARTESIAN_POINT('',(-0.204604003267,-0.144365773074,
1.375774395125));
#282 = CARTESIAN_POINT('',(-0.190312398996,-0.162346757112,1.37656653428
));
#283 = CARTESIAN_POINT('',(-0.184619769685,-0.168943389572,1.37640284773
));
#284 = CARTESIAN_POINT('',(-0.178662174057,-0.175303214128,
1.375770596607));
#285 = CARTESIAN_POINT('',(-0.172471943676,-0.181392415128,
1.374674134501));
#286 = CARTESIAN_POINT('',(-0.166084650802,-0.187184587308,
1.373127820562));
#287 = CARTESIAN_POINT('',(-0.159539108399,-0.19266073579,1.371156019503
));
#288 = CARTESIAN_POINT('',(-0.141769117924,-0.20639431525,1.364853005626
));
#289 = CARTESIAN_POINT('',(-0.130322517645,-0.214077599412,
1.359817526131));
#290 = CARTESIAN_POINT('',(-0.118714753177,-0.22081124053,1.353832072212
));
#291 = CARTESIAN_POINT('',(-0.107055863172,-0.226638340752,
1.347052610642));
#292 = CARTESIAN_POINT('',(-9.5425253607E-02,-0.231619929158,
1.339618398271));
#293 = CARTESIAN_POINT('',(-8.38854436639E-02,-0.235808025034,
1.331642244443));
#294 = CARTESIAN_POINT('',(-6.099401516036E-02,-0.242741812765,
1.314745179435));
#295 = CARTESIAN_POINT('',(-4.999882470742E-02,-0.245371257935,
1.30608086448));
#296 = CARTESIAN_POINT('',(-3.939053171045E-02,-0.247329016265,
1.297277994776));
#297 = CARTESIAN_POINT('',(-2.911991726675E-02,-0.248710823787,
1.288368874519));
#298 = CARTESIAN_POINT('',(-1.915236840212E-02,-0.249582467235,
1.279374846607));
#299 = CARTESIAN_POINT('',(-9.454426329916E-03,-0.249999999107,
1.270310122143));
#300 = CARTESIAN_POINT('',(0.,-0.25,1.261180068764));
#301 = ORIENTED_EDGE('',*,*,#302,.T.);
#302 = EDGE_CURVE('',#266,#183,#303,.T.);
#303 = B_SPLINE_CURVE_WITH_KNOTS('',8,(#304,#305,#306,#307,#308,#309,
#310,#311,#312,#313,#314,#315,#316,#317,#318,#319),.UNSPECIFIED.,.F.
,.F.,(9,7,9),(0.,0.481285943987,1.),.UNSPECIFIED.);
#304 = CARTESIAN_POINT('',(0.,-0.25,1.261180068764));
#305 = CARTESIAN_POINT('',(2.611235628484E-02,-0.249999997533,
1.235963600627));
#306 = CARTESIAN_POINT('',(5.10038534121E-02,-0.246883206372,
1.209683330057));
#307 = CARTESIAN_POINT('',(7.465818183115E-02,-0.241157514431,
1.18280762702));
#308 = CARTESIAN_POINT('',(9.697137264279E-02,-0.233102340642,
1.155677968453));
#309 = CARTESIAN_POINT('',(0.117879560131,-0.222984172343,1.128566336551
));
#310 = CARTESIAN_POINT('',(0.137320119233,-0.210983339048,1.101661421854
));
#311 = CARTESIAN_POINT('',(0.155254227186,-0.197238744841,1.075090503753
));
#312 = CARTESIAN_POINT('',(0.189272174711,-0.165121055026,1.02069584401)
);
#313 = CARTESIAN_POINT('',(0.205008524603,-0.146561008098,0.993087523721
));
#314 = CARTESIAN_POINT('',(0.218787998527,-0.126191980476,0.966172541163
));
#315 = CARTESIAN_POINT('',(0.230437006016,-0.104077549392,0.940123706123
));
#316 = CARTESIAN_POINT('',(0.239739061586,-8.030276057104E-02,
0.915156740539));
#317 = CARTESIAN_POINT('',(0.246373028634,-5.495579844009E-02,
0.891566236852));
#318 = CARTESIAN_POINT('',(0.25,-2.816849818504E-02,0.86968060413));
#319 = CARTESIAN_POINT('',(0.25,0.,0.85));
#320 = ORIENTED_EDGE('',*,*,#182,.T.);
#321 = ORIENTED_EDGE('',*,*,#68,.T.);
#322 = ORIENTED_EDGE('',*,*,#173,.T.);
#323 = ORIENTED_EDGE('',*,*,#255,.T.);
#324 = SPHERICAL_SURFACE('',#325,4.296022727273);
#325 = AXIS2_PLACEMENT_3D('',#326,#327,#328);
#326 = CARTESIAN_POINT('',(2.5,2.096022727273,3.85));
#327 = DIRECTION('',(0.,-1.,0.));
#328 = DIRECTION('',(-1.,0.,0.));
#329 = ADVANCED_FACE('',(#330),#351,.T.);
#330 = FACE_BOUND('',#331,.F.);
#331 = EDGE_LOOP('',(#332,#341,#347,#348,#349,#350));
#332 = ORIENTED_EDGE('',*,*,#333,.F.);
#333 = EDGE_CURVE('',#334,#334,#336,.T.);
#334 = VERTEX_POINT('',#335);
#335 = CARTESIAN_POINT('',(1.942890293094E-16,-0.25,-2.));
#336 = CIRCLE('',#337,0.25);
#337 = AXIS2_PLACEMENT_3D('',#338,#339,#340);
#338 = CARTESIAN_POINT('',(1.665334536938E-16,0.,-2.));
#339 = DIRECTION('',(-0.,0.,1.));
#340 = DIRECTION('',(1.110223024625E-16,-1.,0.));
#341 = ORIENTED_EDGE('',*,*,#342,.T.);
#342 = EDGE_CURVE('',#334,#266,#343,.T.);
#343 = LINE('',#344,#345);
#344 = CARTESIAN_POINT('',(1.942890293094E-16,-0.25,-2.));
#345 = VECTOR('',#346,1.);
#346 = DIRECTION('',(0.,0.,1.));
#347 = ORIENTED_EDGE('',*,*,#302,.T.);
#348 = ORIENTED_EDGE('',*,*,#191,.T.);
#349 = ORIENTED_EDGE('',*,*,#265,.T.);
#350 = ORIENTED_EDGE('',*,*,#342,.F.);
#351 = CYLINDRICAL_SURFACE('',#352,0.25);
#352 = AXIS2_PLACEMENT_3D('',#353,#354,#355);
#353 = CARTESIAN_POINT('',(1.665334536938E-16,0.,-2.));
#354 = DIRECTION('',(-0.,0.,-1.));
#355 = DIRECTION('',(1.110223024625E-16,-1.,0.));
#356 = ADVANCED_FACE('',(#357),#360,.T.);
#357 = FACE_BOUND('',#358,.F.);
#358 = EDGE_LOOP('',(#359));
#359 = ORIENTED_EDGE('',*,*,#333,.T.);
#360 = PLANE('',#361);
#361 = AXIS2_PLACEMENT_3D('',#362,#363,#364);
#362 = CARTESIAN_POINT('',(1.942890293094E-16,-0.25,-2.));
#363 = DIRECTION('',(0.,0.,-1.));
#364 = DIRECTION('',(-1.110223024625E-16,1.,0.));
#365 = ( GEOMETRIC_REPRESENTATION_CONTEXT(3)
GLOBAL_UNCERTAINTY_ASSIGNED_CONTEXT((#369)) GLOBAL_UNIT_ASSIGNED_CONTEXT
((#366,#367,#368)) REPRESENTATION_CONTEXT('Context #1',
'3D Context with UNIT and UNCERTAINTY') );
#366 = ( LENGTH_UNIT() NAMED_UNIT(*) SI_UNIT(.MILLI.,.METRE.) );
#367 = ( NAMED_UNIT(*) PLANE_ANGLE_UNIT() SI_UNIT($,.RADIAN.) );
#368 = ( NAMED_UNIT(*) SI_UNIT($,.STERADIAN.) SOLID_ANGLE_UNIT() );
#369 = UNCERTAINTY_MEASURE_WITH_UNIT(LENGTH_MEASURE(2.E-06),#366,
'distance_accuracy_value','confusion accuracy');
#370 = PRODUCT_TYPE('part',$,(#7));
#371 = MECHANICAL_DESIGN_GEOMETRIC_PRESENTATION_REPRESENTATION('',(#372,
#380,#387,#395,#402,#409),#365);
#372 = STYLED_ITEM('color',(#373),#17);
#373 = PRESENTATION_STYLE_ASSIGNMENT((#374));
#374 = SURFACE_STYLE_USAGE(.BOTH.,#375);
#375 = SURFACE_SIDE_STYLE('',(#376));
#376 = SURFACE_STYLE_FILL_AREA(#377);
#377 = FILL_AREA_STYLE('',(#378));
#378 = FILL_AREA_STYLE_COLOUR('',#379);
#379 = COLOUR_RGB('',0.824000000954,0.819999992847,0.78100001812);
#380 = STYLED_ITEM('color',(#381),#34);
#381 = PRESENTATION_STYLE_ASSIGNMENT((#382));
#382 = SURFACE_STYLE_USAGE(.BOTH.,#383);
#383 = SURFACE_SIDE_STYLE('',(#384));
#384 = SURFACE_STYLE_FILL_AREA(#385);
#385 = FILL_AREA_STYLE('',(#386));
#386 = FILL_AREA_STYLE_COLOUR('',#379);
#387 = STYLED_ITEM('color',(#388),#157);
#388 = PRESENTATION_STYLE_ASSIGNMENT((#389));
#389 = SURFACE_STYLE_USAGE(.BOTH.,#390);
#390 = SURFACE_SIDE_STYLE('',(#391));
#391 = SURFACE_STYLE_FILL_AREA(#392);
#392 = FILL_AREA_STYLE('',(#393));
#393 = FILL_AREA_STYLE_COLOUR('',#394);
#394 = COLOUR_RGB('',0.809000015259,0.425999999046,0.148000001907);
#395 = STYLED_ITEM('color',(#396),#251);
#396 = PRESENTATION_STYLE_ASSIGNMENT((#397));
#397 = SURFACE_STYLE_USAGE(.BOTH.,#398);
#398 = SURFACE_SIDE_STYLE('',(#399));
#399 = SURFACE_STYLE_FILL_AREA(#400);
#400 = FILL_AREA_STYLE('',(#401));
#401 = FILL_AREA_STYLE_COLOUR('',#394);
#402 = STYLED_ITEM('color',(#403),#329);
#403 = PRESENTATION_STYLE_ASSIGNMENT((#404));
#404 = SURFACE_STYLE_USAGE(.BOTH.,#405);
#405 = SURFACE_SIDE_STYLE('',(#406));
#406 = SURFACE_STYLE_FILL_AREA(#407);
#407 = FILL_AREA_STYLE('',(#408));
#408 = FILL_AREA_STYLE_COLOUR('',#379);
#409 = STYLED_ITEM('color',(#410),#356);
#410 = PRESENTATION_STYLE_ASSIGNMENT((#411));
#411 = SURFACE_STYLE_USAGE(.BOTH.,#412);
#412 = SURFACE_SIDE_STYLE('',(#413));
#413 = SURFACE_STYLE_FILL_AREA(#414);
#414 = FILL_AREA_STYLE('',(#415));
#415 = FILL_AREA_STYLE_COLOUR('',#379);
ENDSEC;
END-ISO-10303-21;
