ISO-10303-21;
HEADER;
FILE_DESCRIPTION(('FreeCAD Model'),'2;1');
FILE_NAME(
'D:/KiCAD/packages3D-source/Connectors.pretty\\
Pin_d1.4mm_L8.5mm_W2.8mm_FlatFork.step','2017-09-09T14:29:26',(
    'kicad StepUp'),('ksu MCAD'),'Open CASCADE STEP processor 7.1',
  'FreeCAD','Unknown');
FILE_SCHEMA(('AUTOMOTIVE_DESIGN { 1 0 10303 214 1 1 1 1 }'));
ENDSEC;
DATA;
#1 = APPLICATION_PROTOCOL_DEFINITION('international standard',
  'automotive_design',2000,#2);
#2 = APPLICATION_CONTEXT(
  'core data for automotive mechanical design processes');
#3 = SHAPE_DEFINITION_REPRESENTATION(#4,#10);
#4 = PRODUCT_DEFINITION_SHAPE('','',#5);
#5 = PRODUCT_DEFINITION('design','',#6,#9);
#6 = PRODUCT_DEFINITION_FORMATION('','',#7);
#7 = PRODUCT('Pin_d1.4mm_L8.5mm_W2.8mm_FlatFork',
  'Pin_d1.4mm_L8.5mm_W2.8mm_FlatFork','',(#8));
#8 = PRODUCT_CONTEXT('',#2,'mechanical');
#9 = PRODUCT_DEFINITION_CONTEXT('part definition',#2,'design');
#10 = ADVANCED_BREP_SHAPE_REPRESENTATION('',(#11,#15),#472);
#11 = AXIS2_PLACEMENT_3D('',#12,#13,#14);
#12 = CARTESIAN_POINT('',(0.E+000,0.E+000,0.E+000));
#13 = DIRECTION('',(0.E+000,0.E+000,1.));
#14 = DIRECTION('',(1.,0.E+000,-0.E+000));
#15 = MANIFOLD_SOLID_BREP('',#16);
#16 = CLOSED_SHELL('',(#17,#57,#88,#119,#150,#181,#214,#245,#276,#307,
    #338,#369,#393,#426,#449));
#17 = ADVANCED_FACE('',(#18),#52,.F.);
#18 = FACE_BOUND('',#19,.F.);
#19 = EDGE_LOOP('',(#20,#30,#38,#46));
#20 = ORIENTED_EDGE('',*,*,#21,.T.);
#21 = EDGE_CURVE('',#22,#24,#26,.T.);
#22 = VERTEX_POINT('',#23);
#23 = CARTESIAN_POINT('',(0.85,-0.3,4.375));
#24 = VERTEX_POINT('',#25);
#25 = CARTESIAN_POINT('',(0.85,0.3,4.375));
#26 = LINE('',#27,#28);
#27 = CARTESIAN_POINT('',(0.85,-0.3,4.375));
#28 = VECTOR('',#29,1.);
#29 = DIRECTION('',(0.E+000,1.,-6.62044604925E-016));
#30 = ORIENTED_EDGE('',*,*,#31,.T.);
#31 = EDGE_CURVE('',#24,#32,#34,.T.);
#32 = VERTEX_POINT('',#33);
#33 = CARTESIAN_POINT('',(0.85,0.3,5.6));
#34 = LINE('',#35,#36);
#35 = CARTESIAN_POINT('',(0.85,0.3,4.375));
#36 = VECTOR('',#37,1.);
#37 = DIRECTION('',(0.E+000,2.22044604925E-016,1.));
#38 = ORIENTED_EDGE('',*,*,#39,.F.);
#39 = EDGE_CURVE('',#40,#32,#42,.T.);
#40 = VERTEX_POINT('',#41);
#41 = CARTESIAN_POINT('',(0.85,-0.3,5.6));
#42 = LINE('',#43,#44);
#43 = CARTESIAN_POINT('',(0.85,-0.3,5.6));
#44 = VECTOR('',#45,1.);
#45 = DIRECTION('',(0.E+000,1.,-6.62044604925E-016));
#46 = ORIENTED_EDGE('',*,*,#47,.F.);
#47 = EDGE_CURVE('',#22,#40,#48,.T.);
#48 = LINE('',#49,#50);
#49 = CARTESIAN_POINT('',(0.85,-0.3,4.375));
#50 = VECTOR('',#51,1.);
#51 = DIRECTION('',(0.E+000,2.22044604925E-016,1.));
#52 = PLANE('',#53);
#53 = AXIS2_PLACEMENT_3D('',#54,#55,#56);
#54 = CARTESIAN_POINT('',(0.85,-0.3,4.375));
#55 = DIRECTION('',(1.,0.E+000,0.E+000));
#56 = DIRECTION('',(0.E+000,6.62044604925E-016,1.));
#57 = ADVANCED_FACE('',(#58),#83,.F.);
#58 = FACE_BOUND('',#59,.F.);
#59 = EDGE_LOOP('',(#60,#61,#69,#77));
#60 = ORIENTED_EDGE('',*,*,#39,.T.);
#61 = ORIENTED_EDGE('',*,*,#62,.T.);
#62 = EDGE_CURVE('',#32,#63,#65,.T.);
#63 = VERTEX_POINT('',#64);
#64 = CARTESIAN_POINT('',(1.4,0.3,5.6));
#65 = LINE('',#66,#67);
#66 = CARTESIAN_POINT('',(0.85,0.3,5.6));
#67 = VECTOR('',#68,1.);
#68 = DIRECTION('',(1.,0.E+000,0.E+000));
#69 = ORIENTED_EDGE('',*,*,#70,.F.);
#70 = EDGE_CURVE('',#71,#63,#73,.T.);
#71 = VERTEX_POINT('',#72);
#72 = CARTESIAN_POINT('',(1.4,-0.3,5.6));
#73 = LINE('',#74,#75);
#74 = CARTESIAN_POINT('',(1.4,-0.3,5.6));
#75 = VECTOR('',#76,1.);
#76 = DIRECTION('',(0.E+000,1.,-6.62044604925E-016));
#77 = ORIENTED_EDGE('',*,*,#78,.F.);
#78 = EDGE_CURVE('',#40,#71,#79,.T.);
#79 = LINE('',#80,#81);
#80 = CARTESIAN_POINT('',(0.85,-0.3,5.6));
#81 = VECTOR('',#82,1.);
#82 = DIRECTION('',(1.,0.E+000,0.E+000));
#83 = PLANE('',#84);
#84 = AXIS2_PLACEMENT_3D('',#85,#86,#87);
#85 = CARTESIAN_POINT('',(0.85,-0.3,5.6));
#86 = DIRECTION('',(0.E+000,-6.62044604925E-016,-1.));
#87 = DIRECTION('',(1.,0.E+000,0.E+000));
#88 = ADVANCED_FACE('',(#89),#114,.F.);
#89 = FACE_BOUND('',#90,.F.);
#90 = EDGE_LOOP('',(#91,#92,#100,#108));
#91 = ORIENTED_EDGE('',*,*,#70,.T.);
#92 = ORIENTED_EDGE('',*,*,#93,.T.);
#93 = EDGE_CURVE('',#63,#94,#96,.T.);
#94 = VERTEX_POINT('',#95);
#95 = CARTESIAN_POINT('',(1.4,0.3,-6.661338147751E-017));
#96 = LINE('',#97,#98);
#97 = CARTESIAN_POINT('',(1.4,0.3,5.6));
#98 = VECTOR('',#99,1.);
#99 = DIRECTION('',(0.E+000,-2.22044604925E-016,-1.));
#100 = ORIENTED_EDGE('',*,*,#101,.F.);
#101 = EDGE_CURVE('',#102,#94,#104,.T.);
#102 = VERTEX_POINT('',#103);
#103 = CARTESIAN_POINT('',(1.4,-0.3,6.661338147751E-017));
#104 = LINE('',#105,#106);
#105 = CARTESIAN_POINT('',(1.4,-0.3,1.966133814775E-016));
#106 = VECTOR('',#107,1.);
#107 = DIRECTION('',(0.E+000,1.,-6.62044604925E-016));
#108 = ORIENTED_EDGE('',*,*,#109,.F.);
#109 = EDGE_CURVE('',#71,#102,#110,.T.);
#110 = LINE('',#111,#112);
#111 = CARTESIAN_POINT('',(1.4,-0.3,5.6));
#112 = VECTOR('',#113,1.);
#113 = DIRECTION('',(0.E+000,-2.22044604925E-016,-1.));
#114 = PLANE('',#115);
#115 = AXIS2_PLACEMENT_3D('',#116,#117,#118);
#116 = CARTESIAN_POINT('',(1.4,-0.3,5.6));
#117 = DIRECTION('',(-1.,-0.E+000,0.E+000));
#118 = DIRECTION('',(0.E+000,-6.62044604925E-016,-1.));
#119 = ADVANCED_FACE('',(#120),#145,.F.);
#120 = FACE_BOUND('',#121,.F.);
#121 = EDGE_LOOP('',(#122,#123,#131,#139));
#122 = ORIENTED_EDGE('',*,*,#101,.T.);
#123 = ORIENTED_EDGE('',*,*,#124,.T.);
#124 = EDGE_CURVE('',#94,#125,#127,.T.);
#125 = VERTEX_POINT('',#126);
#126 = CARTESIAN_POINT('',(0.7,0.3,-6.661338147751E-017));
#127 = LINE('',#128,#129);
#128 = CARTESIAN_POINT('',(1.4,0.3,-6.661338147751E-017));
#129 = VECTOR('',#130,1.);
#130 = DIRECTION('',(-1.,0.E+000,0.E+000));
#131 = ORIENTED_EDGE('',*,*,#132,.F.);
#132 = EDGE_CURVE('',#133,#125,#135,.T.);
#133 = VERTEX_POINT('',#134);
#134 = CARTESIAN_POINT('',(0.7,-0.3,6.661338147751E-017));
#135 = LINE('',#136,#137);
#136 = CARTESIAN_POINT('',(0.7,-0.3,1.966133814775E-016));
#137 = VECTOR('',#138,1.);
#138 = DIRECTION('',(0.E+000,1.,-6.62044604925E-016));
#139 = ORIENTED_EDGE('',*,*,#140,.F.);
#140 = EDGE_CURVE('',#102,#133,#141,.T.);
#141 = LINE('',#142,#143);
#142 = CARTESIAN_POINT('',(1.4,-0.3,6.661338147751E-017));
#143 = VECTOR('',#144,1.);
#144 = DIRECTION('',(-1.,0.E+000,0.E+000));
#145 = PLANE('',#146);
#146 = AXIS2_PLACEMENT_3D('',#147,#148,#149);
#147 = CARTESIAN_POINT('',(1.4,-0.3,1.966133814775E-016));
#148 = DIRECTION('',(0.E+000,6.62044604925E-016,1.));
#149 = DIRECTION('',(-1.,0.E+000,0.E+000));
#150 = ADVANCED_FACE('',(#151),#176,.F.);
#151 = FACE_BOUND('',#152,.F.);
#152 = EDGE_LOOP('',(#153,#154,#162,#170));
#153 = ORIENTED_EDGE('',*,*,#132,.T.);
#154 = ORIENTED_EDGE('',*,*,#155,.T.);
#155 = EDGE_CURVE('',#125,#156,#158,.T.);
#156 = VERTEX_POINT('',#157);
#157 = CARTESIAN_POINT('',(0.7,0.3,-2.2));
#158 = LINE('',#159,#160);
#159 = CARTESIAN_POINT('',(0.7,0.3,-6.661338147751E-017));
#160 = VECTOR('',#161,1.);
#161 = DIRECTION('',(0.E+000,-2.22044604925E-016,-1.));
#162 = ORIENTED_EDGE('',*,*,#163,.F.);
#163 = EDGE_CURVE('',#164,#156,#166,.T.);
#164 = VERTEX_POINT('',#165);
#165 = CARTESIAN_POINT('',(0.7,-0.3,-2.2));
#166 = LINE('',#167,#168);
#167 = CARTESIAN_POINT('',(0.7,-0.3,-2.2));
#168 = VECTOR('',#169,1.);
#169 = DIRECTION('',(0.E+000,1.,-6.62044604925E-016));
#170 = ORIENTED_EDGE('',*,*,#171,.F.);
#171 = EDGE_CURVE('',#133,#164,#172,.T.);
#172 = LINE('',#173,#174);
#173 = CARTESIAN_POINT('',(0.7,-0.3,6.661338147751E-017));
#174 = VECTOR('',#175,1.);
#175 = DIRECTION('',(0.E+000,-2.22044604925E-016,-1.));
#176 = PLANE('',#177);
#177 = AXIS2_PLACEMENT_3D('',#178,#179,#180);
#178 = CARTESIAN_POINT('',(0.7,-0.3,1.966133814775E-016));
#179 = DIRECTION('',(-1.,-0.E+000,0.E+000));
#180 = DIRECTION('',(0.E+000,-6.62044604925E-016,-1.));
#181 = ADVANCED_FACE('',(#182),#209,.T.);
#182 = FACE_BOUND('',#183,.F.);
#183 = EDGE_LOOP('',(#184,#185,#194,#202));
#184 = ORIENTED_EDGE('',*,*,#163,.T.);
#185 = ORIENTED_EDGE('',*,*,#186,.T.);
#186 = EDGE_CURVE('',#156,#187,#189,.T.);
#187 = VERTEX_POINT('',#188);
#188 = CARTESIAN_POINT('',(-0.7,0.3,-2.2));
#189 = CIRCLE('',#190,0.7);
#190 = AXIS2_PLACEMENT_3D('',#191,#192,#193);
#191 = CARTESIAN_POINT('',(0.E+000,0.3,-2.2));
#192 = DIRECTION('',(0.E+000,1.,-2.22044604925E-016));
#193 = DIRECTION('',(-1.,0.E+000,0.E+000));
#194 = ORIENTED_EDGE('',*,*,#195,.F.);
#195 = EDGE_CURVE('',#196,#187,#198,.T.);
#196 = VERTEX_POINT('',#197);
#197 = CARTESIAN_POINT('',(-0.7,-0.3,-2.2));
#198 = LINE('',#199,#200);
#199 = CARTESIAN_POINT('',(-0.7,-0.3,-2.2));
#200 = VECTOR('',#201,1.);
#201 = DIRECTION('',(0.E+000,1.,-6.62044604925E-016));
#202 = ORIENTED_EDGE('',*,*,#203,.F.);
#203 = EDGE_CURVE('',#164,#196,#204,.T.);
#204 = CIRCLE('',#205,0.7);
#205 = AXIS2_PLACEMENT_3D('',#206,#207,#208);
#206 = CARTESIAN_POINT('',(0.E+000,-0.3,-2.2));
#207 = DIRECTION('',(0.E+000,1.,-2.22044604925E-016));
#208 = DIRECTION('',(-1.,0.E+000,0.E+000));
#209 = CYLINDRICAL_SURFACE('',#210,0.7);
#210 = AXIS2_PLACEMENT_3D('',#211,#212,#213);
#211 = CARTESIAN_POINT('',(0.E+000,-0.3,-2.2));
#212 = DIRECTION('',(0.E+000,-1.,6.62044604925E-016));
#213 = DIRECTION('',(-1.,0.E+000,0.E+000));
#214 = ADVANCED_FACE('',(#215),#240,.T.);
#215 = FACE_BOUND('',#216,.T.);
#216 = EDGE_LOOP('',(#217,#227,#233,#234));
#217 = ORIENTED_EDGE('',*,*,#218,.T.);
#218 = EDGE_CURVE('',#219,#221,#223,.T.);
#219 = VERTEX_POINT('',#220);
#220 = CARTESIAN_POINT('',(-0.7,-0.3,6.661338147751E-017));
#221 = VERTEX_POINT('',#222);
#222 = CARTESIAN_POINT('',(-0.7,0.3,-6.661338147751E-017));
#223 = LINE('',#224,#225);
#224 = CARTESIAN_POINT('',(-0.7,-0.3,1.966133814775E-016));
#225 = VECTOR('',#226,1.);
#226 = DIRECTION('',(0.E+000,1.,-6.62044604925E-016));
#227 = ORIENTED_EDGE('',*,*,#228,.T.);
#228 = EDGE_CURVE('',#221,#187,#229,.T.);
#229 = LINE('',#230,#231);
#230 = CARTESIAN_POINT('',(-0.7,0.3,-6.661338147751E-017));
#231 = VECTOR('',#232,1.);
#232 = DIRECTION('',(0.E+000,-2.22044604925E-016,-1.));
#233 = ORIENTED_EDGE('',*,*,#195,.F.);
#234 = ORIENTED_EDGE('',*,*,#235,.F.);
#235 = EDGE_CURVE('',#219,#196,#236,.T.);
#236 = LINE('',#237,#238);
#237 = CARTESIAN_POINT('',(-0.7,-0.3,6.661338147751E-017));
#238 = VECTOR('',#239,1.);
#239 = DIRECTION('',(0.E+000,-2.22044604925E-016,-1.));
#240 = PLANE('',#241);
#241 = AXIS2_PLACEMENT_3D('',#242,#243,#244);
#242 = CARTESIAN_POINT('',(-0.7,-0.3,1.966133814775E-016));
#243 = DIRECTION('',(-1.,-0.E+000,0.E+000));
#244 = DIRECTION('',(0.E+000,-6.62044604925E-016,-1.));
#245 = ADVANCED_FACE('',(#246),#271,.F.);
#246 = FACE_BOUND('',#247,.F.);
#247 = EDGE_LOOP('',(#248,#249,#257,#265));
#248 = ORIENTED_EDGE('',*,*,#218,.T.);
#249 = ORIENTED_EDGE('',*,*,#250,.T.);
#250 = EDGE_CURVE('',#221,#251,#253,.T.);
#251 = VERTEX_POINT('',#252);
#252 = CARTESIAN_POINT('',(-1.4,0.3,-6.661338147751E-017));
#253 = LINE('',#254,#255);
#254 = CARTESIAN_POINT('',(-0.7,0.3,-6.661338147751E-017));
#255 = VECTOR('',#256,1.);
#256 = DIRECTION('',(-1.,0.E+000,0.E+000));
#257 = ORIENTED_EDGE('',*,*,#258,.F.);
#258 = EDGE_CURVE('',#259,#251,#261,.T.);
#259 = VERTEX_POINT('',#260);
#260 = CARTESIAN_POINT('',(-1.4,-0.3,6.661338147751E-017));
#261 = LINE('',#262,#263);
#262 = CARTESIAN_POINT('',(-1.4,-0.3,1.966133814775E-016));
#263 = VECTOR('',#264,1.);
#264 = DIRECTION('',(0.E+000,1.,-6.62044604925E-016));
#265 = ORIENTED_EDGE('',*,*,#266,.F.);
#266 = EDGE_CURVE('',#219,#259,#267,.T.);
#267 = LINE('',#268,#269);
#268 = CARTESIAN_POINT('',(-0.7,-0.3,6.661338147751E-017));
#269 = VECTOR('',#270,1.);
#270 = DIRECTION('',(-1.,0.E+000,0.E+000));
#271 = PLANE('',#272);
#272 = AXIS2_PLACEMENT_3D('',#273,#274,#275);
#273 = CARTESIAN_POINT('',(-0.7,-0.3,1.966133814775E-016));
#274 = DIRECTION('',(0.E+000,6.62044604925E-016,1.));
#275 = DIRECTION('',(-1.,0.E+000,0.E+000));
#276 = ADVANCED_FACE('',(#277),#302,.F.);
#277 = FACE_BOUND('',#278,.F.);
#278 = EDGE_LOOP('',(#279,#280,#288,#296));
#279 = ORIENTED_EDGE('',*,*,#258,.T.);
#280 = ORIENTED_EDGE('',*,*,#281,.T.);
#281 = EDGE_CURVE('',#251,#282,#284,.T.);
#282 = VERTEX_POINT('',#283);
#283 = CARTESIAN_POINT('',(-1.4,0.3,5.6));
#284 = LINE('',#285,#286);
#285 = CARTESIAN_POINT('',(-1.4,0.3,-6.661338147751E-017));
#286 = VECTOR('',#287,1.);
#287 = DIRECTION('',(0.E+000,2.22044604925E-016,1.));
#288 = ORIENTED_EDGE('',*,*,#289,.F.);
#289 = EDGE_CURVE('',#290,#282,#292,.T.);
#290 = VERTEX_POINT('',#291);
#291 = CARTESIAN_POINT('',(-1.4,-0.3,5.6));
#292 = LINE('',#293,#294);
#293 = CARTESIAN_POINT('',(-1.4,-0.3,5.6));
#294 = VECTOR('',#295,1.);
#295 = DIRECTION('',(0.E+000,1.,-6.62044604925E-016));
#296 = ORIENTED_EDGE('',*,*,#297,.F.);
#297 = EDGE_CURVE('',#259,#290,#298,.T.);
#298 = LINE('',#299,#300);
#299 = CARTESIAN_POINT('',(-1.4,-0.3,6.661338147751E-017));
#300 = VECTOR('',#301,1.);
#301 = DIRECTION('',(0.E+000,2.22044604925E-016,1.));
#302 = PLANE('',#303);
#303 = AXIS2_PLACEMENT_3D('',#304,#305,#306);
#304 = CARTESIAN_POINT('',(-1.4,-0.3,1.966133814775E-016));
#305 = DIRECTION('',(1.,0.E+000,0.E+000));
#306 = DIRECTION('',(0.E+000,6.62044604925E-016,1.));
#307 = ADVANCED_FACE('',(#308),#333,.F.);
#308 = FACE_BOUND('',#309,.F.);
#309 = EDGE_LOOP('',(#310,#311,#319,#327));
#310 = ORIENTED_EDGE('',*,*,#289,.T.);
#311 = ORIENTED_EDGE('',*,*,#312,.T.);
#312 = EDGE_CURVE('',#282,#313,#315,.T.);
#313 = VERTEX_POINT('',#314);
#314 = CARTESIAN_POINT('',(-0.85,0.3,5.6));
#315 = LINE('',#316,#317);
#316 = CARTESIAN_POINT('',(-1.4,0.3,5.6));
#317 = VECTOR('',#318,1.);
#318 = DIRECTION('',(1.,0.E+000,0.E+000));
#319 = ORIENTED_EDGE('',*,*,#320,.F.);
#320 = EDGE_CURVE('',#321,#313,#323,.T.);
#321 = VERTEX_POINT('',#322);
#322 = CARTESIAN_POINT('',(-0.85,-0.3,5.6));
#323 = LINE('',#324,#325);
#324 = CARTESIAN_POINT('',(-0.85,-0.3,5.6));
#325 = VECTOR('',#326,1.);
#326 = DIRECTION('',(0.E+000,1.,-6.62044604925E-016));
#327 = ORIENTED_EDGE('',*,*,#328,.F.);
#328 = EDGE_CURVE('',#290,#321,#329,.T.);
#329 = LINE('',#330,#331);
#330 = CARTESIAN_POINT('',(-1.4,-0.3,5.6));
#331 = VECTOR('',#332,1.);
#332 = DIRECTION('',(1.,0.E+000,0.E+000));
#333 = PLANE('',#334);
#334 = AXIS2_PLACEMENT_3D('',#335,#336,#337);
#335 = CARTESIAN_POINT('',(-1.4,-0.3,5.6));
#336 = DIRECTION('',(0.E+000,-6.62044604925E-016,-1.));
#337 = DIRECTION('',(1.,0.E+000,0.E+000));
#338 = ADVANCED_FACE('',(#339),#364,.F.);
#339 = FACE_BOUND('',#340,.F.);
#340 = EDGE_LOOP('',(#341,#342,#350,#358));
#341 = ORIENTED_EDGE('',*,*,#320,.T.);
#342 = ORIENTED_EDGE('',*,*,#343,.T.);
#343 = EDGE_CURVE('',#313,#344,#346,.T.);
#344 = VERTEX_POINT('',#345);
#345 = CARTESIAN_POINT('',(-0.85,0.3,4.375));
#346 = LINE('',#347,#348);
#347 = CARTESIAN_POINT('',(-0.85,0.3,5.6));
#348 = VECTOR('',#349,1.);
#349 = DIRECTION('',(0.E+000,-2.22044604925E-016,-1.));
#350 = ORIENTED_EDGE('',*,*,#351,.F.);
#351 = EDGE_CURVE('',#352,#344,#354,.T.);
#352 = VERTEX_POINT('',#353);
#353 = CARTESIAN_POINT('',(-0.85,-0.3,4.375));
#354 = LINE('',#355,#356);
#355 = CARTESIAN_POINT('',(-0.85,-0.3,4.375));
#356 = VECTOR('',#357,1.);
#357 = DIRECTION('',(0.E+000,1.,-6.62044604925E-016));
#358 = ORIENTED_EDGE('',*,*,#359,.F.);
#359 = EDGE_CURVE('',#321,#352,#360,.T.);
#360 = LINE('',#361,#362);
#361 = CARTESIAN_POINT('',(-0.85,-0.3,5.6));
#362 = VECTOR('',#363,1.);
#363 = DIRECTION('',(0.E+000,-2.22044604925E-016,-1.));
#364 = PLANE('',#365);
#365 = AXIS2_PLACEMENT_3D('',#366,#367,#368);
#366 = CARTESIAN_POINT('',(-0.85,-0.3,5.6));
#367 = DIRECTION('',(-1.,-0.E+000,0.E+000));
#368 = DIRECTION('',(0.E+000,-6.62044604925E-016,-1.));
#369 = ADVANCED_FACE('',(#370),#388,.F.);
#370 = FACE_BOUND('',#371,.T.);
#371 = EDGE_LOOP('',(#372,#373,#380,#381));
#372 = ORIENTED_EDGE('',*,*,#21,.T.);
#373 = ORIENTED_EDGE('',*,*,#374,.T.);
#374 = EDGE_CURVE('',#24,#344,#375,.T.);
#375 = CIRCLE('',#376,0.85);
#376 = AXIS2_PLACEMENT_3D('',#377,#378,#379);
#377 = CARTESIAN_POINT('',(7.E-017,0.3,4.375));
#378 = DIRECTION('',(0.E+000,1.,-2.22044604925E-016));
#379 = DIRECTION('',(-1.,0.E+000,0.E+000));
#380 = ORIENTED_EDGE('',*,*,#351,.F.);
#381 = ORIENTED_EDGE('',*,*,#382,.F.);
#382 = EDGE_CURVE('',#22,#352,#383,.T.);
#383 = CIRCLE('',#384,0.85);
#384 = AXIS2_PLACEMENT_3D('',#385,#386,#387);
#385 = CARTESIAN_POINT('',(7.E-017,-0.3,4.375));
#386 = DIRECTION('',(0.E+000,1.,-2.22044604925E-016));
#387 = DIRECTION('',(-1.,0.E+000,0.E+000));
#388 = CYLINDRICAL_SURFACE('',#389,0.85);
#389 = AXIS2_PLACEMENT_3D('',#390,#391,#392);
#390 = CARTESIAN_POINT('',(7.E-017,-0.3,4.375));
#391 = DIRECTION('',(0.E+000,-1.,6.62044604925E-016));
#392 = DIRECTION('',(-1.,0.E+000,0.E+000));
#393 = ADVANCED_FACE('',(#394),#421,.F.);
#394 = FACE_BOUND('',#395,.T.);
#395 = EDGE_LOOP('',(#396,#406,#413,#414));
#396 = ORIENTED_EDGE('',*,*,#397,.T.);
#397 = EDGE_CURVE('',#398,#400,#402,.T.);
#398 = VERTEX_POINT('',#399);
#399 = CARTESIAN_POINT('',(-0.85,-0.3,1.86648));
#400 = VERTEX_POINT('',#401);
#401 = CARTESIAN_POINT('',(-0.85,0.3,1.86648));
#402 = LINE('',#403,#404);
#403 = CARTESIAN_POINT('',(-0.85,-0.3,1.86648));
#404 = VECTOR('',#405,1.);
#405 = DIRECTION('',(0.E+000,1.,-6.62044604925E-016));
#406 = ORIENTED_EDGE('',*,*,#407,.T.);
#407 = EDGE_CURVE('',#400,#400,#408,.T.);
#408 = CIRCLE('',#409,0.85);
#409 = AXIS2_PLACEMENT_3D('',#410,#411,#412);
#410 = CARTESIAN_POINT('',(0.E+000,0.3,1.86648));
#411 = DIRECTION('',(0.E+000,1.,-2.22044604925E-016));
#412 = DIRECTION('',(-1.,0.E+000,0.E+000));
#413 = ORIENTED_EDGE('',*,*,#397,.F.);
#414 = ORIENTED_EDGE('',*,*,#415,.F.);
#415 = EDGE_CURVE('',#398,#398,#416,.T.);
#416 = CIRCLE('',#417,0.85);
#417 = AXIS2_PLACEMENT_3D('',#418,#419,#420);
#418 = CARTESIAN_POINT('',(0.E+000,-0.3,1.86648));
#419 = DIRECTION('',(0.E+000,1.,-2.22044604925E-016));
#420 = DIRECTION('',(-1.,0.E+000,0.E+000));
#421 = CYLINDRICAL_SURFACE('',#422,0.85);
#422 = AXIS2_PLACEMENT_3D('',#423,#424,#425);
#423 = CARTESIAN_POINT('',(0.E+000,-0.3,1.86648));
#424 = DIRECTION('',(0.E+000,-1.,6.62044604925E-016));
#425 = DIRECTION('',(-1.,0.E+000,0.E+000));
#426 = ADVANCED_FACE('',(#427,#441),#444,.F.);
#427 = FACE_BOUND('',#428,.F.);
#428 = EDGE_LOOP('',(#429,#430,#431,#432,#433,#434,#435,#436,#437,#438,
    #439,#440));
#429 = ORIENTED_EDGE('',*,*,#47,.T.);
#430 = ORIENTED_EDGE('',*,*,#78,.T.);
#431 = ORIENTED_EDGE('',*,*,#109,.T.);
#432 = ORIENTED_EDGE('',*,*,#140,.T.);
#433 = ORIENTED_EDGE('',*,*,#171,.T.);
#434 = ORIENTED_EDGE('',*,*,#203,.T.);
#435 = ORIENTED_EDGE('',*,*,#235,.F.);
#436 = ORIENTED_EDGE('',*,*,#266,.T.);
#437 = ORIENTED_EDGE('',*,*,#297,.T.);
#438 = ORIENTED_EDGE('',*,*,#328,.T.);
#439 = ORIENTED_EDGE('',*,*,#359,.T.);
#440 = ORIENTED_EDGE('',*,*,#382,.F.);
#441 = FACE_BOUND('',#442,.F.);
#442 = EDGE_LOOP('',(#443));
#443 = ORIENTED_EDGE('',*,*,#415,.F.);
#444 = PLANE('',#445);
#445 = AXIS2_PLACEMENT_3D('',#446,#447,#448);
#446 = CARTESIAN_POINT('',(1.8E-016,-0.3,1.957758468088));
#447 = DIRECTION('',(0.E+000,1.,-4.42044604925E-016));
#448 = DIRECTION('',(0.E+000,4.42044604925E-016,1.));
#449 = ADVANCED_FACE('',(#450,#464),#467,.T.);
#450 = FACE_BOUND('',#451,.T.);
#451 = EDGE_LOOP('',(#452,#453,#454,#455,#456,#457,#458,#459,#460,#461,
    #462,#463));
#452 = ORIENTED_EDGE('',*,*,#31,.T.);
#453 = ORIENTED_EDGE('',*,*,#62,.T.);
#454 = ORIENTED_EDGE('',*,*,#93,.T.);
#455 = ORIENTED_EDGE('',*,*,#124,.T.);
#456 = ORIENTED_EDGE('',*,*,#155,.T.);
#457 = ORIENTED_EDGE('',*,*,#186,.T.);
#458 = ORIENTED_EDGE('',*,*,#228,.F.);
#459 = ORIENTED_EDGE('',*,*,#250,.T.);
#460 = ORIENTED_EDGE('',*,*,#281,.T.);
#461 = ORIENTED_EDGE('',*,*,#312,.T.);
#462 = ORIENTED_EDGE('',*,*,#343,.T.);
#463 = ORIENTED_EDGE('',*,*,#374,.F.);
#464 = FACE_BOUND('',#465,.T.);
#465 = EDGE_LOOP('',(#466));
#466 = ORIENTED_EDGE('',*,*,#407,.F.);
#467 = PLANE('',#468);
#468 = AXIS2_PLACEMENT_3D('',#469,#470,#471);
#469 = CARTESIAN_POINT('',(1.8E-016,0.3,1.957758468088));
#470 = DIRECTION('',(0.E+000,1.,-4.42044604925E-016));
#471 = DIRECTION('',(0.E+000,4.42044604925E-016,1.));
#472 = ( GEOMETRIC_REPRESENTATION_CONTEXT(3) 
GLOBAL_UNCERTAINTY_ASSIGNED_CONTEXT((#476)) GLOBAL_UNIT_ASSIGNED_CONTEXT
((#473,#474,#475)) REPRESENTATION_CONTEXT('Context #1',
  '3D Context with UNIT and UNCERTAINTY') );
#473 = ( LENGTH_UNIT() NAMED_UNIT(*) SI_UNIT(.MILLI.,.METRE.) );
#474 = ( NAMED_UNIT(*) PLANE_ANGLE_UNIT() SI_UNIT($,.RADIAN.) );
#475 = ( NAMED_UNIT(*) SI_UNIT($,.STERADIAN.) SOLID_ANGLE_UNIT() );
#476 = UNCERTAINTY_MEASURE_WITH_UNIT(LENGTH_MEASURE(1.E-007),#473,
  'distance_accuracy_value','confusion accuracy');
#477 = PRODUCT_RELATED_PRODUCT_CATEGORY('part',$,(#7));
#478 = MECHANICAL_DESIGN_GEOMETRIC_PRESENTATION_REPRESENTATION('',(#479)
  ,#472);
#479 = STYLED_ITEM('color',(#480),#15);
#480 = PRESENTATION_STYLE_ASSIGNMENT((#481,#487));
#481 = SURFACE_STYLE_USAGE(.BOTH.,#482);
#482 = SURFACE_SIDE_STYLE('',(#483));
#483 = SURFACE_STYLE_FILL_AREA(#484);
#484 = FILL_AREA_STYLE('',(#485));
#485 = FILL_AREA_STYLE_COLOUR('',#486);
#486 = COLOUR_RGB('',0.824000000954,0.819999992847,0.78100001812);
#487 = CURVE_STYLE('',#488,POSITIVE_LENGTH_MEASURE(0.1),#486);
#488 = DRAUGHTING_PRE_DEFINED_CURVE_FONT('continuous');
ENDSEC;
END-ISO-10303-21;
