ISO-10303-21;
HEADER;
/* C_Disc_D8.0mm_W5.0mm_P5.00mm.step 3D STEP model for use in ECAD systems
 * Copyright (C) 2017, kicad StepUp
 * 
 * This program is free software: you can redistribute it and/or modify
 * it under the terms of the GNU General Public License as published by
 * the Free Software Foundation, either version 3 of the License, or
 * any later version.
 * 
 * This program is distributed in the hope that it will be useful,
 * but WITHOUT ANY WARRANTY; without even the implied warranty of
 * MERCHANTABILITY or FITNESS FOR A PARTICULAR PURPOSE.  See the
 * GNU General Public License for more details.
 * 
 * You should have received a copy of the GNU General Public License
 * along with this program.  If not, see http://www.gnu.org/licenses/.
 * 
 * As a special exception, if you create a design which uses this symbol,
 * and embed this symbol or unaltered portions of this symbol into the design,
 * this symbol does not by itself cause the resulting design to be covered by
 * the GNU General Public License.
 * This exception does not however invalidate any other reasons why the design
 * itself might be covered by the GNU General Public License. 
 * If you modify this symbol, you may extend this exception to your version of the symbol,
 * but you are not obligated to do so.
 * If you do not wish to do so, delete this exception statement from your version
 * Risk disclaimer
 * *USE 3D CAD DATA AT YOUR OWN RISK*
 * *DO NOT RELY UPON ANY INFORMATION FOUND HERE WITHOUT INDEPENDENT VERIFICATION.*
 * 
 */

FILE_DESCRIPTION(
/* description */ ('model of C_Disc_D8.0mm_W5.0mm_P5.00mm'),
/* implementation_level */ '2;1');

FILE_NAME(
/* name */ 'C_Disc_D8.0mm_W5.0mm_P5.00mm.step',
/* time_stamp */ '2017-07-29T15:42:17',
/* author */ ('kicad StepUp','ksu'),
/* organization */ ('FreeCAD'),
/* preprocessor_version */ 'OCC',
/* originating_system */ 'kicad StepUp',
/* authorisation */ '');

FILE_SCHEMA(('AUTOMOTIVE_DESIGN_CC2 { 1 2 10303 214 -1 1 5 4 }'));
ENDSEC;

DATA;
#1 = APPLICATION_PROTOCOL_DEFINITION('committee draft',
'automotive_design',1997,#2);
#2 = APPLICATION_CONTEXT(
'core data for automotive mechanical design processes');
#3 = SHAPE_DEFINITION_REPRESENTATION(#4,#10);
#4 = PRODUCT_DEFINITION_SHAPE('','',#5);
#5 = PRODUCT_DEFINITION('design','',#6,#9);
#6 = PRODUCT_DEFINITION_FORMATION('','',#7);
#7 = PRODUCT('C_Disc_D80mm_W50mm_P500mm','C_Disc_D80mm_W50mm_P500mm','',
(#8));
#8 = MECHANICAL_CONTEXT('',#2,'mechanical');
#9 = PRODUCT_DEFINITION_CONTEXT('part definition',#2,'design');
#10 = ADVANCED_BREP_SHAPE_REPRESENTATION('',(#11,#15),#365);
#11 = AXIS2_PLACEMENT_3D('',#12,#13,#14);
#12 = CARTESIAN_POINT('',(0.,0.,0.));
#13 = DIRECTION('',(0.,0.,1.));
#14 = DIRECTION('',(1.,0.,-0.));
#15 = MANIFOLD_SOLID_BREP('',#16);
#16 = CLOSED_SHELL('',(#17,#34,#157,#251,#329,#356));
#17 = ADVANCED_FACE('',(#18),#29,.T.);
#18 = FACE_BOUND('',#19,.F.);
#19 = EDGE_LOOP('',(#20));
#20 = ORIENTED_EDGE('',*,*,#21,.T.);
#21 = EDGE_CURVE('',#22,#22,#24,.T.);
#22 = VERTEX_POINT('',#23);
#23 = CARTESIAN_POINT('',(5.,0.35,-2.));
#24 = CIRCLE('',#25,0.35);
#25 = AXIS2_PLACEMENT_3D('',#26,#27,#28);
#26 = CARTESIAN_POINT('',(5.,0.,-2.));
#27 = DIRECTION('',(0.,-0.,1.));
#28 = DIRECTION('',(1.144237745222E-17,1.,0.));
#29 = PLANE('',#30);
#30 = AXIS2_PLACEMENT_3D('',#31,#32,#33);
#31 = CARTESIAN_POINT('',(5.,0.35,-2.));
#32 = DIRECTION('',(-0.,0.,-1.));
#33 = DIRECTION('',(-1.144237745222E-17,-1.,0.));
#34 = ADVANCED_FACE('',(#35),#152,.T.);
#35 = FACE_BOUND('',#36,.F.);
#36 = EDGE_LOOP('',(#37,#38,#46,#67,#116,#151));
#37 = ORIENTED_EDGE('',*,*,#21,.F.);
#38 = ORIENTED_EDGE('',*,*,#39,.T.);
#39 = EDGE_CURVE('',#22,#40,#42,.T.);
#40 = VERTEX_POINT('',#41);
#41 = CARTESIAN_POINT('',(5.,0.35,1.225543529639));
#42 = LINE('',#43,#44);
#43 = CARTESIAN_POINT('',(5.,0.35,-2.));
#44 = VECTOR('',#45,1.);
#45 = DIRECTION('',(0.,0.,1.));
#46 = ORIENTED_EDGE('',*,*,#47,.T.);
#47 = EDGE_CURVE('',#40,#48,#50,.T.);
#48 = VERTEX_POINT('',#49);
#49 = CARTESIAN_POINT('',(4.65,9.992007221626E-16,0.726945004895));
#50 = B_SPLINE_CURVE_WITH_KNOTS('',8,(#51,#52,#53,#54,#55,#56,#57,#58,
#59,#60,#61,#62,#63,#64,#65,#66),.UNSPECIFIED.,.F.,.F.,(9,7,9),(0.,
0.496388092862,1.),.UNSPECIFIED.);
#51 = CARTESIAN_POINT('',(5.,0.35,1.225543529639));
#52 = CARTESIAN_POINT('',(4.963362352427,0.349999996647,1.193678679526)
);
#53 = CARTESIAN_POINT('',(4.928253873102,0.345617226384,1.160574276174)
);
#54 = CARTESIAN_POINT('',(4.894737448194,0.337489415128,1.126772564832)
);
#55 = CARTESIAN_POINT('',(4.86298741356,0.325965299284,1.092681398613));
#56 = CARTESIAN_POINT('',(4.833136204685,0.311377153622,1.05863331701));
#57 = CARTESIAN_POINT('',(4.805319144609,0.293952913918,1.024874285667)
);
#58 = CARTESIAN_POINT('',(4.779646150593,0.273872911794,0.991586493275)
);
#59 = CARTESIAN_POINT('',(4.73252779203,0.228148962926,0.925699906897));
#60 = CARTESIAN_POINT('',(4.711262802615,0.202538328557,0.893276754809)
);
#61 = CARTESIAN_POINT('',(4.692569709169,0.174434370871,0.861721363051)
);
#62 = CARTESIAN_POINT('',(4.676713746837,0.143905613286,0.831248477607)
);
#63 = CARTESIAN_POINT('',(4.664021457431,0.111056909008,0.802129270755)
);
#64 = CARTESIAN_POINT('',(4.654954389061,7.600971424812E-02,
0.774730920013));
#65 = CARTESIAN_POINT('',(4.65,3.895374595004E-02,0.749464591654));
#66 = CARTESIAN_POINT('',(4.65,-1.33226762955E-15,0.726945004895));
#67 = ORIENTED_EDGE('',*,*,#68,.T.);
#68 = EDGE_CURVE('',#48,#69,#71,.T.);
#69 = VERTEX_POINT('',#70);
#70 = CARTESIAN_POINT('',(5.35,9.992007221626E-16,1.293311559863));
#71 = B_SPLINE_CURVE_WITH_KNOTS('',8,(#72,#73,#74,#75,#76,#77,#78,#79,
#80,#81,#82,#83,#84,#85,#86,#87,#88,#89,#90,#91,#92,#93,#94,#95,#96,
#97,#98,#99,#100,#101,#102,#103,#104,#105,#106,#107,#108,#109,#110,
#111,#112,#113,#114,#115),.UNSPECIFIED.,.F.,.F.,(9,7,7,7,7,7,9),(0.,
0.192650296711,0.367853106981,0.514103206613,0.645983091742,
0.806410054132,1.),.UNSPECIFIED.);
#72 = CARTESIAN_POINT('',(4.65,1.110223024625E-15,0.726945004895));
#73 = CARTESIAN_POINT('',(4.65,-2.272934689745E-02,0.740085089037));
#74 = CARTESIAN_POINT('',(4.651686760498,-4.499920056286E-02,
0.754268220279));
#75 = CARTESIAN_POINT('',(4.654941791539,-6.680072556296E-02,
0.769417674011));
#76 = CARTESIAN_POINT('',(4.659689160403,-8.81148743224E-02,
0.785482377004));
#77 = CARTESIAN_POINT('',(4.665879588657,-0.108915601692,0.802427121789)
);
#78 = CARTESIAN_POINT('',(4.673482228949,-0.129171412688,0.820227697718)
);
#79 = CARTESIAN_POINT('',(4.682484121514,-0.148845243396,0.83887093869)
);
#80 = CARTESIAN_POINT('',(4.70236746098,-0.185215064941,0.876083426521)
);
#81 = CARTESIAN_POINT('',(4.712998132757,-0.202006741584,0.894493711712)
);
#82 = CARTESIAN_POINT('',(4.724797228174,-0.218241368282,0.913595702108)
);
#83 = CARTESIAN_POINT('',(4.737786375315,-0.233873021168,0.933394609118)
);
#84 = CARTESIAN_POINT('',(4.75199396861,-0.248839890068,0.953892126606)
);
#85 = CARTESIAN_POINT('',(4.767455646837,-0.263064205431,0.975086635048)
);
#86 = CARTESIAN_POINT('',(4.784222228422,-0.276448391328,0.996977179825)
);
#87 = CARTESIAN_POINT('',(4.817528170732,-0.299234217522,1.038431544176)
);
#88 = CARTESIAN_POINT('',(4.833620185006,-0.30890980351,1.057748318565)
);
#89 = CARTESIAN_POINT('',(4.85071345616,-0.317838631104,1.077548132393)
);
#90 = CARTESIAN_POINT('',(4.868859364279,-0.325924574262,1.097824389481)
);
#91 = CARTESIAN_POINT('',(4.888093858413,-0.333034932619,1.118534426529)
);
#92 = CARTESIAN_POINT('',(4.90843151925,-0.339007532429,1.139596422877)
);
#93 = CARTESIAN_POINT('',(4.929865061452,-0.343653087014,1.160887259902)
);
#94 = CARTESIAN_POINT('',(4.97267725159,-0.349533023956,1.201499391566)
);
#95 = CARTESIAN_POINT('',(4.993920381593,-0.351066650717,1.220871184991)
);
#96 = CARTESIAN_POINT('',(5.015949275639,-0.351144307417,1.240091477677)
);
#97 = CARTESIAN_POINT('',(5.038561056826,-0.349585716381,1.258857709415)
);
#98 = CARTESIAN_POINT('',(5.061508672381,-0.346253945405,1.276844720452)
);
#99 = CARTESIAN_POINT('',(5.084498773742,-0.341065193263,1.293708888739)
);
#100 = CARTESIAN_POINT('',(5.107184730482,-0.334021161937,1.30910763751)
);
#101 = CARTESIAN_POINT('',(5.155877617357,-0.314688618935,1.339365638872
));
#102 = CARTESIAN_POINT('',(5.18138395411,-0.301657454237,1.353289572206)
);
#103 = CARTESIAN_POINT('',(5.205448856048,-0.286377095255,1.364386278886
));
#104 = CARTESIAN_POINT('',(5.227782400941,-0.269077993453,1.372500665372
));
#105 = CARTESIAN_POINT('',(5.248096171287,-0.250092561831,1.377564611472
));
#106 = CARTESIAN_POINT('',(5.266149780275,-0.229878805719,1.379665799642
));
#107 = CARTESIAN_POINT('',(5.281791220429,-0.209037806714,1.379098736138
));
#108 = CARTESIAN_POINT('',(5.310952801001,-0.163360228373,1.373162703575
));
#109 = CARTESIAN_POINT('',(5.32328183125,-0.138720212441,1.366842569715)
);
#110 = CARTESIAN_POINT('',(5.332845546862,-0.114481529639,1.358290695148
));
#111 = CARTESIAN_POINT('',(5.340016641522,-9.069255080964E-02,
1.347910724189));
#112 = CARTESIAN_POINT('',(5.345135997782,-6.737373893063E-02,
1.336052188995));
#113 = CARTESIAN_POINT('',(5.34840788363,-4.451489770913E-02,
1.322916804036));
#114 = CARTESIAN_POINT('',(5.35,-2.207926469757E-02,1.308651547567));
#115 = CARTESIAN_POINT('',(5.35,1.110223024625E-15,1.293311559863));
#116 = ORIENTED_EDGE('',*,*,#117,.T.);
#117 = EDGE_CURVE('',#69,#40,#118,.T.);
#118 = B_SPLINE_CURVE_WITH_KNOTS('',7,(#119,#120,#121,#122,#123,#124,
#125,#126,#127,#128,#129,#130,#131,#132,#133,#134,#135,#136,#137,
#138,#139,#140,#141,#142,#143,#144,#145,#146,#147,#148,#149,#150),
.UNSPECIFIED.,.F.,.F.,(8,6,6,6,6,8),(0.,0.264503545274,0.431539287457,
0.556789800406,0.76559076947,1.),.UNSPECIFIED.);
#119 = CARTESIAN_POINT('',(5.35,-1.33226762955E-15,1.293311559863));
#120 = CARTESIAN_POINT('',(5.35,1.505385964035E-02,1.303770514223));
#121 = CARTESIAN_POINT('',(5.349246620183,3.070099618041E-02,
1.31401609164));
#122 = CARTESIAN_POINT('',(5.347618485694,4.713103098971E-02,
1.324068437469));
#123 = CARTESIAN_POINT('',(5.344983046731,6.447115559681E-02,
1.333895687162));
#124 = CARTESIAN_POINT('',(5.340985484631,8.295782205893E-02,
1.343340155602));
#125 = CARTESIAN_POINT('',(5.335398950613,0.102651206321,1.352232289052)
);
#126 = CARTESIAN_POINT('',(5.322077153419,0.137759073734,1.365063344138)
);
#127 = CARTESIAN_POINT('',(5.316172934661,0.151341821745,1.36935390891)
);
#128 = CARTESIAN_POINT('',(5.309499210627,0.164829997823,1.372879762431)
);
#129 = CARTESIAN_POINT('',(5.302055548675,0.178132527641,1.375570851562)
);
#130 = CARTESIAN_POINT('',(5.293862832839,0.191155394069,1.377375834605)
);
#131 = CARTESIAN_POINT('',(5.28496326383,0.203801637166,1.378262081307)
);
#132 = CARTESIAN_POINT('',(5.268264682615,0.22509672628,1.37818087382));
#133 = CARTESIAN_POINT('',(5.260748871926,0.233953964004,1.377623116373)
);
#134 = CARTESIAN_POINT('',(5.252904899216,0.24250215928,1.376542632892)
);
#135 = CARTESIAN_POINT('',(5.244767375509,0.25070750835,1.37494766376));
#136 = CARTESIAN_POINT('',(5.236373550605,0.258543311771,1.37285445736)
);
#137 = CARTESIAN_POINT('',(5.227763313074,0.265989974424,1.370287270082)
);
#138 = CARTESIAN_POINT('',(5.204335470947,0.284779542776,1.362262322806)
);
#139 = CARTESIAN_POINT('',(5.18919395844,0.295417004901,1.356011635887)
);
#140 = CARTESIAN_POINT('',(5.173743258788,0.304887637652,1.348665748757)
);
#141 = CARTESIAN_POINT('',(5.158114607557,0.31321989503,1.340376237383)
);
#142 = CARTESIAN_POINT('',(5.142410547776,0.320464992751,1.331283912456)
);
#143 = CARTESIAN_POINT('',(5.126716449162,0.326671573266,1.321510178202)
);
#144 = CARTESIAN_POINT('',(5.093557389319,0.337770687589,1.299546051598)
);
#145 = CARTESIAN_POINT('',(5.076737960269,0.342198501207,1.287621047976)
);
#146 = CARTESIAN_POINT('',(5.060485611935,0.345499365421,1.275478249533)
);
#147 = CARTESIAN_POINT('',(5.044737840015,0.347822893252,1.263169247779)
);
#148 = CARTESIAN_POINT('',(5.029436156949,0.349295691816,1.250732120935)
);
#149 = CARTESIAN_POINT('',(5.014537745956,0.34999999867,1.23818743746));
#150 = CARTESIAN_POINT('',(5.,0.35,1.225543529639));
#151 = ORIENTED_EDGE('',*,*,#39,.F.);
#152 = CYLINDRICAL_SURFACE('',#153,0.35);
#153 = AXIS2_PLACEMENT_3D('',#154,#155,#156);
#154 = CARTESIAN_POINT('',(5.,0.,-2.));
#155 = DIRECTION('',(0.,-0.,-1.));
#156 = DIRECTION('',(1.144237745222E-17,1.,0.));
#157 = ADVANCED_FACE('',(#158),#246,.T.);
#158 = FACE_BOUND('',#159,.T.);
#159 = EDGE_LOOP('',(#160,#171,#172,#179,#180,#181,#190,#239));
#160 = ORIENTED_EDGE('',*,*,#161,.F.);
#161 = EDGE_CURVE('',#162,#164,#166,.T.);
#162 = VERTEX_POINT('',#163);
#163 = CARTESIAN_POINT('',(2.5,2.5,4.1));
#164 = VERTEX_POINT('',#165);
#165 = CARTESIAN_POINT('',(-1.5,9.992007221626E-16,4.1));
#166 = CIRCLE('',#167,4.45);
#167 = AXIS2_PLACEMENT_3D('',#168,#169,#170);
#168 = CARTESIAN_POINT('',(2.5,-1.95,4.1));
#169 = DIRECTION('',(0.,-0.,1.));
#170 = DIRECTION('',(2.120650721194E-16,1.,0.));
#171 = ORIENTED_EDGE('',*,*,#161,.T.);
#172 = ORIENTED_EDGE('',*,*,#173,.F.);
#173 = EDGE_CURVE('',#69,#164,#174,.T.);
#174 = CIRCLE('',#175,4.);
#175 = AXIS2_PLACEMENT_3D('',#176,#177,#178);
#176 = CARTESIAN_POINT('',(2.5,9.992007221626E-16,4.1));
#177 = DIRECTION('',(0.,-1.,0.));
#178 = DIRECTION('',(-1.,0.,0.));
#179 = ORIENTED_EDGE('',*,*,#117,.T.);
#180 = ORIENTED_EDGE('',*,*,#47,.T.);
#181 = ORIENTED_EDGE('',*,*,#182,.F.);
#182 = EDGE_CURVE('',#183,#48,#185,.T.);
#183 = VERTEX_POINT('',#184);
#184 = CARTESIAN_POINT('',(0.35,9.992007221626E-16,0.726945004895));
#185 = CIRCLE('',#186,4.);
#186 = AXIS2_PLACEMENT_3D('',#187,#188,#189);
#187 = CARTESIAN_POINT('',(2.5,9.992007221626E-16,4.1));
#188 = DIRECTION('',(0.,-1.,0.));
#189 = DIRECTION('',(-1.,0.,0.));
#190 = ORIENTED_EDGE('',*,*,#191,.T.);
#191 = EDGE_CURVE('',#183,#192,#194,.T.);
#192 = VERTEX_POINT('',#193);
#193 = CARTESIAN_POINT('',(-0.35,9.992007221626E-16,1.293311559863));
#194 = B_SPLINE_CURVE_WITH_KNOTS('',8,(#195,#196,#197,#198,#199,#200,
#201,#202,#203,#204,#205,#206,#207,#208,#209,#210,#211,#212,#213,
#214,#215,#216,#217,#218,#219,#220,#221,#222,#223,#224,#225,#226,
#227,#228,#229,#230,#231,#232,#233,#234,#235,#236,#237,#238),
.UNSPECIFIED.,.F.,.F.,(9,7,7,7,7,7,9),(0.,0.192650296713,
0.367853106986,0.514103206614,0.645983091752,0.806410054149,1.),
.UNSPECIFIED.);
#195 = CARTESIAN_POINT('',(0.35,-1.33226762955E-15,0.726945004895));
#196 = CARTESIAN_POINT('',(0.35,2.272934689761E-02,0.740085089037));
#197 = CARTESIAN_POINT('',(0.348313239502,4.499920056316E-02,
0.754268220279));
#198 = CARTESIAN_POINT('',(0.345058208461,6.68007255634E-02,
0.769417674012));
#199 = CARTESIAN_POINT('',(0.340310839597,8.811487432298E-02,
0.785482377004));
#200 = CARTESIAN_POINT('',(0.334120411343,0.108915601693,0.802427121789)
);
#201 = CARTESIAN_POINT('',(0.326517771051,0.129171412689,0.820227697719)
);
#202 = CARTESIAN_POINT('',(0.317515878485,0.148845243397,0.838870938691)
);
#203 = CARTESIAN_POINT('',(0.297632539019,0.185215064943,0.876083426523)
);
#204 = CARTESIAN_POINT('',(0.287001867242,0.202006741586,0.894493711714)
);
#205 = CARTESIAN_POINT('',(0.275202771824,0.218241368285,0.913595702111)
);
#206 = CARTESIAN_POINT('',(0.262213624683,0.233873021171,0.933394609121)
);
#207 = CARTESIAN_POINT('',(0.248006031387,0.248839890071,0.95389212661)
);
#208 = CARTESIAN_POINT('',(0.232544353159,0.263064205434,0.975086635053)
);
#209 = CARTESIAN_POINT('',(0.215777771574,0.276448391332,0.99697717983)
);
#210 = CARTESIAN_POINT('',(0.182471829263,0.299234217525,1.038431544182)
);
#211 = CARTESIAN_POINT('',(0.166379814989,0.308909803513,1.05774831857)
);
#212 = CARTESIAN_POINT('',(0.149286543836,0.317838631106,1.077548132398)
);
#213 = CARTESIAN_POINT('',(0.131140635717,0.325924574264,1.097824389486)
);
#214 = CARTESIAN_POINT('',(0.111906141584,0.33303493262,1.118534426532)
);
#215 = CARTESIAN_POINT('',(9.156848074784E-02,0.33900753243,
1.139596422879));
#216 = CARTESIAN_POINT('',(7.013493854634E-02,0.343653087014,
1.160887259904));
#217 = CARTESIAN_POINT('',(2.732274840718E-02,0.349533023956,
1.201499391569));
#218 = CARTESIAN_POINT('',(6.07961840233E-03,0.351066650717,
1.220871184995));
#219 = CARTESIAN_POINT('',(-1.594927564542E-02,0.351144307417,
1.240091477682));
#220 = CARTESIAN_POINT('',(-3.856105683358E-02,0.349585716381,
1.258857709422));
#221 = CARTESIAN_POINT('',(-6.150867239092E-02,0.346253945403,
1.276844720459));
#222 = CARTESIAN_POINT('',(-8.449877375303E-02,0.341065193261,
1.293708888747));
#223 = CARTESIAN_POINT('',(-0.107184730494,0.334021161933,1.309107637518
));
#224 = CARTESIAN_POINT('',(-0.155877617372,0.314688618928,1.33936563888)
);
#225 = CARTESIAN_POINT('',(-0.181383954125,0.301657454228,1.353289572213
));
#226 = CARTESIAN_POINT('',(-0.205448856063,0.286377095245,1.364386278892
));
#227 = CARTESIAN_POINT('',(-0.227782400956,0.26907799344,1.372500665377)
);
#228 = CARTESIAN_POINT('',(-0.248096171301,0.250092561816,1.377564611475
));
#229 = CARTESIAN_POINT('',(-0.266149780289,0.229878805703,1.379665799643
));
#230 = CARTESIAN_POINT('',(-0.281791220441,0.209037806697,1.379098736138
));
#231 = CARTESIAN_POINT('',(-0.310952801009,0.163360228357,1.373162703571
));
#232 = CARTESIAN_POINT('',(-0.323281831255,0.138720212429,1.36684256971)
);
#233 = CARTESIAN_POINT('',(-0.332845546865,0.114481529629,1.358290695143
));
#234 = CARTESIAN_POINT('',(-0.340016641524,9.069255080145E-02,
1.347910724185));
#235 = CARTESIAN_POINT('',(-0.345135997783,6.737373892442E-02,
1.336052188991));
#236 = CARTESIAN_POINT('',(-0.34840788363,4.451489770514E-02,
1.322916804033));
#237 = CARTESIAN_POINT('',(-0.35,2.207926469557E-02,1.308651547565));
#238 = CARTESIAN_POINT('',(-0.35,-1.33226762955E-15,1.293311559863));
#239 = ORIENTED_EDGE('',*,*,#240,.F.);
#240 = EDGE_CURVE('',#164,#192,#241,.T.);
#241 = CIRCLE('',#242,4.);
#242 = AXIS2_PLACEMENT_3D('',#243,#244,#245);
#243 = CARTESIAN_POINT('',(2.5,9.992007221626E-16,4.1));
#244 = DIRECTION('',(0.,-1.,0.));
#245 = DIRECTION('',(-1.,0.,0.));
#246 = SPHERICAL_SURFACE('',#247,4.45);
#247 = AXIS2_PLACEMENT_3D('',#248,#249,#250);
#248 = CARTESIAN_POINT('',(2.5,-1.95,4.1));
#249 = DIRECTION('',(0.,-1.,0.));
#250 = DIRECTION('',(-1.,0.,0.));
#251 = ADVANCED_FACE('',(#252),#324,.T.);
#252 = FACE_BOUND('',#253,.T.);
#253 = EDGE_LOOP('',(#254,#263,#264,#301,#320,#321,#322,#323));
#254 = ORIENTED_EDGE('',*,*,#255,.F.);
#255 = EDGE_CURVE('',#164,#256,#258,.T.);
#256 = VERTEX_POINT('',#257);
#257 = CARTESIAN_POINT('',(2.5,-2.5,4.1));
#258 = CIRCLE('',#259,4.45);
#259 = AXIS2_PLACEMENT_3D('',#260,#261,#262);
#260 = CARTESIAN_POINT('',(2.5,1.95,4.1));
#261 = DIRECTION('',(0.,0.,1.));
#262 = DIRECTION('',(-0.898876404494,-0.438202247191,0.));
#263 = ORIENTED_EDGE('',*,*,#240,.T.);
#264 = ORIENTED_EDGE('',*,*,#265,.T.);
#265 = EDGE_CURVE('',#192,#266,#268,.T.);
#266 = VERTEX_POINT('',#267);
#267 = CARTESIAN_POINT('',(0.,-0.35,1.225543529639));
#268 = B_SPLINE_CURVE_WITH_KNOTS('',7,(#269,#270,#271,#272,#273,#274,
#275,#276,#277,#278,#279,#280,#281,#282,#283,#284,#285,#286,#287,
#288,#289,#290,#291,#292,#293,#294,#295,#296,#297,#298,#299,#300),
.UNSPECIFIED.,.F.,.F.,(8,6,6,6,6,8),(0.,0.264503545183,0.43153928736,
0.556789800282,0.765590769369,1.),.UNSPECIFIED.);
#269 = CARTESIAN_POINT('',(-0.35,1.110223024625E-15,1.293311559863));
#270 = CARTESIAN_POINT('',(-0.35,-1.505385963984E-02,1.303770514223));
#271 = CARTESIAN_POINT('',(-0.349246620183,-3.070099617936E-02,
1.314016091639));
#272 = CARTESIAN_POINT('',(-0.347618485695,-4.71310309881E-02,
1.324068437468));
#273 = CARTESIAN_POINT('',(-0.344983046732,-6.447115559448E-02,
1.33389568716));
#274 = CARTESIAN_POINT('',(-0.340985484632,-8.295782205587E-02,
1.343340155601));
#275 = CARTESIAN_POINT('',(-0.335398950614,-0.102651206317,1.35223228905
));
#276 = CARTESIAN_POINT('',(-0.32207715342,-0.137759073732,1.365063344138
));
#277 = CARTESIAN_POINT('',(-0.316172934662,-0.151341821743,1.36935390891
));
#278 = CARTESIAN_POINT('',(-0.309499210629,-0.16482999782,1.37287976243)
);
#279 = CARTESIAN_POINT('',(-0.302055548677,-0.178132527637,
1.375570851561));
#280 = CARTESIAN_POINT('',(-0.293862832842,-0.191155394065,
1.377375834604));
#281 = CARTESIAN_POINT('',(-0.284963263832,-0.203801637163,
1.378262081306));
#282 = CARTESIAN_POINT('',(-0.268264682619,-0.225096726275,1.37818087382
));
#283 = CARTESIAN_POINT('',(-0.260748871932,-0.233953963998,
1.377623116374));
#284 = CARTESIAN_POINT('',(-0.252904899222,-0.242502159274,
1.376542632893));
#285 = CARTESIAN_POINT('',(-0.244767375515,-0.250707508345,
1.374947663761));
#286 = CARTESIAN_POINT('',(-0.236373550608,-0.258543311768,
1.372854457361));
#287 = CARTESIAN_POINT('',(-0.227763313077,-0.265989974421,
1.370287270082));
#288 = CARTESIAN_POINT('',(-0.204335470952,-0.284779542773,
1.362262322808));
#289 = CARTESIAN_POINT('',(-0.189193958442,-0.2954170049,1.356011635888)
);
#290 = CARTESIAN_POINT('',(-0.173743258788,-0.304887637653,
1.348665748757));
#291 = CARTESIAN_POINT('',(-0.158114607556,-0.313219895031,
1.340376237382));
#292 = CARTESIAN_POINT('',(-0.142410547775,-0.320464992751,
1.331283912455));
#293 = CARTESIAN_POINT('',(-0.126716449164,-0.326671573265,
1.321510178203));
#294 = CARTESIAN_POINT('',(-9.355738932335E-02,-0.337770687587,
1.299546051601));
#295 = CARTESIAN_POINT('',(-7.673796027292E-02,-0.342198501207,
1.287621047979));
#296 = CARTESIAN_POINT('',(-6.048561193779E-02,-0.345499365421,
1.275478249536));
#297 = CARTESIAN_POINT('',(-4.473784001692E-02,-0.347822893252,
1.263169247781));
#298 = CARTESIAN_POINT('',(-2.94361569505E-02,-0.349295691816,
1.250732120936));
#299 = CARTESIAN_POINT('',(-1.45377459562E-02,-0.34999999867,
1.238187437461));
#300 = CARTESIAN_POINT('',(0.,-0.35,1.225543529639));
#301 = ORIENTED_EDGE('',*,*,#302,.T.);
#302 = EDGE_CURVE('',#266,#183,#303,.T.);
#303 = B_SPLINE_CURVE_WITH_KNOTS('',8,(#304,#305,#306,#307,#308,#309,
#310,#311,#312,#313,#314,#315,#316,#317,#318,#319),.UNSPECIFIED.,.F.
,.F.,(9,7,9),(0.,0.496388092883,1.),.UNSPECIFIED.);
#304 = CARTESIAN_POINT('',(0.,-0.35,1.225543529639));
#305 = CARTESIAN_POINT('',(3.663764757489E-02,-0.349999996647,
1.193678679525));
#306 = CARTESIAN_POINT('',(7.174612690098E-02,-0.345617226384,
1.160574276172));
#307 = CARTESIAN_POINT('',(0.10526255181,-0.337489415127,1.126772564827)
);
#308 = CARTESIAN_POINT('',(0.137012586445,-0.325965299282,1.092681398607
));
#309 = CARTESIAN_POINT('',(0.166863795321,-0.311377153618,1.058633317003
));
#310 = CARTESIAN_POINT('',(0.194680855399,-0.293952913913,1.024874285658
));
#311 = CARTESIAN_POINT('',(0.220353849415,-0.273872911788,0.991586493264
));
#312 = CARTESIAN_POINT('',(0.267472207976,-0.228148962919,0.925699906887
));
#313 = CARTESIAN_POINT('',(0.28873719739,-0.20253832855,0.893276754801)
);
#314 = CARTESIAN_POINT('',(0.307430290835,-0.174434370864,0.861721363045
));
#315 = CARTESIAN_POINT('',(0.323286253165,-0.14390561328,0.831248477602)
);
#316 = CARTESIAN_POINT('',(0.33597854257,-0.111056909003,0.802129270751)
);
#317 = CARTESIAN_POINT('',(0.34504561094,-7.600971424488E-02,
0.774730920011));
#318 = CARTESIAN_POINT('',(0.35,-3.895374594837E-02,0.749464591653));
#319 = CARTESIAN_POINT('',(0.35,1.110223024625E-15,0.726945004895));
#320 = ORIENTED_EDGE('',*,*,#182,.T.);
#321 = ORIENTED_EDGE('',*,*,#68,.T.);
#322 = ORIENTED_EDGE('',*,*,#173,.T.);
#323 = ORIENTED_EDGE('',*,*,#255,.T.);
#324 = SPHERICAL_SURFACE('',#325,4.45);
#325 = AXIS2_PLACEMENT_3D('',#326,#327,#328);
#326 = CARTESIAN_POINT('',(2.5,1.95,4.1));
#327 = DIRECTION('',(0.,-1.,0.));
#328 = DIRECTION('',(-1.,0.,0.));
#329 = ADVANCED_FACE('',(#330),#351,.T.);
#330 = FACE_BOUND('',#331,.F.);
#331 = EDGE_LOOP('',(#332,#341,#347,#348,#349,#350));
#332 = ORIENTED_EDGE('',*,*,#333,.F.);
#333 = EDGE_CURVE('',#334,#334,#336,.T.);
#334 = VERTEX_POINT('',#335);
#335 = CARTESIAN_POINT('',(2.053912595557E-16,-0.35,-2.));
#336 = CIRCLE('',#337,0.35);
#337 = AXIS2_PLACEMENT_3D('',#338,#339,#340);
#338 = CARTESIAN_POINT('',(1.665334536938E-16,0.,-2.));
#339 = DIRECTION('',(-0.,0.,1.));
#340 = DIRECTION('',(1.110223024625E-16,-1.,0.));
#341 = ORIENTED_EDGE('',*,*,#342,.T.);
#342 = EDGE_CURVE('',#334,#266,#343,.T.);
#343 = LINE('',#344,#345);
#344 = CARTESIAN_POINT('',(2.053912595557E-16,-0.35,-2.));
#345 = VECTOR('',#346,1.);
#346 = DIRECTION('',(0.,0.,1.));
#347 = ORIENTED_EDGE('',*,*,#302,.T.);
#348 = ORIENTED_EDGE('',*,*,#191,.T.);
#349 = ORIENTED_EDGE('',*,*,#265,.T.);
#350 = ORIENTED_EDGE('',*,*,#342,.F.);
#351 = CYLINDRICAL_SURFACE('',#352,0.35);
#352 = AXIS2_PLACEMENT_3D('',#353,#354,#355);
#353 = CARTESIAN_POINT('',(1.665334536938E-16,0.,-2.));
#354 = DIRECTION('',(-0.,0.,-1.));
#355 = DIRECTION('',(1.110223024625E-16,-1.,0.));
#356 = ADVANCED_FACE('',(#357),#360,.T.);
#357 = FACE_BOUND('',#358,.F.);
#358 = EDGE_LOOP('',(#359));
#359 = ORIENTED_EDGE('',*,*,#333,.T.);
#360 = PLANE('',#361);
#361 = AXIS2_PLACEMENT_3D('',#362,#363,#364);
#362 = CARTESIAN_POINT('',(2.053912595557E-16,-0.35,-2.));
#363 = DIRECTION('',(0.,0.,-1.));
#364 = DIRECTION('',(-1.110223024625E-16,1.,0.));
#365 = ( GEOMETRIC_REPRESENTATION_CONTEXT(3)
GLOBAL_UNCERTAINTY_ASSIGNED_CONTEXT((#369)) GLOBAL_UNIT_ASSIGNED_CONTEXT
((#366,#367,#368)) REPRESENTATION_CONTEXT('Context #1',
'3D Context with UNIT and UNCERTAINTY') );
#366 = ( LENGTH_UNIT() NAMED_UNIT(*) SI_UNIT(.MILLI.,.METRE.) );
#367 = ( NAMED_UNIT(*) PLANE_ANGLE_UNIT() SI_UNIT($,.RADIAN.) );
#368 = ( NAMED_UNIT(*) SI_UNIT($,.STERADIAN.) SOLID_ANGLE_UNIT() );
#369 = UNCERTAINTY_MEASURE_WITH_UNIT(LENGTH_MEASURE(2.E-06),#366,
'distance_accuracy_value','confusion accuracy');
#370 = PRODUCT_TYPE('part',$,(#7));
#371 = MECHANICAL_DESIGN_GEOMETRIC_PRESENTATION_REPRESENTATION('',(#372,
#380,#387,#395,#402,#409),#365);
#372 = STYLED_ITEM('color',(#373),#17);
#373 = PRESENTATION_STYLE_ASSIGNMENT((#374));
#374 = SURFACE_STYLE_USAGE(.BOTH.,#375);
#375 = SURFACE_SIDE_STYLE('',(#376));
#376 = SURFACE_STYLE_FILL_AREA(#377);
#377 = FILL_AREA_STYLE('',(#378));
#378 = FILL_AREA_STYLE_COLOUR('',#379);
#379 = COLOUR_RGB('',0.824000000954,0.819999992847,0.78100001812);
#380 = STYLED_ITEM('color',(#381),#34);
#381 = PRESENTATION_STYLE_ASSIGNMENT((#382));
#382 = SURFACE_STYLE_USAGE(.BOTH.,#383);
#383 = SURFACE_SIDE_STYLE('',(#384));
#384 = SURFACE_STYLE_FILL_AREA(#385);
#385 = FILL_AREA_STYLE('',(#386));
#386 = FILL_AREA_STYLE_COLOUR('',#379);
#387 = STYLED_ITEM('color',(#388),#157);
#388 = PRESENTATION_STYLE_ASSIGNMENT((#389));
#389 = SURFACE_STYLE_USAGE(.BOTH.,#390);
#390 = SURFACE_SIDE_STYLE('',(#391));
#391 = SURFACE_STYLE_FILL_AREA(#392);
#392 = FILL_AREA_STYLE('',(#393));
#393 = FILL_AREA_STYLE_COLOUR('',#394);
#394 = COLOUR_RGB('',0.809000015259,0.425999999046,0.148000001907);
#395 = STYLED_ITEM('color',(#396),#251);
#396 = PRESENTATION_STYLE_ASSIGNMENT((#397));
#397 = SURFACE_STYLE_USAGE(.BOTH.,#398);
#398 = SURFACE_SIDE_STYLE('',(#399));
#399 = SURFACE_STYLE_FILL_AREA(#400);
#400 = FILL_AREA_STYLE('',(#401));
#401 = FILL_AREA_STYLE_COLOUR('',#394);
#402 = STYLED_ITEM('color',(#403),#329);
#403 = PRESENTATION_STYLE_ASSIGNMENT((#404));
#404 = SURFACE_STYLE_USAGE(.BOTH.,#405);
#405 = SURFACE_SIDE_STYLE('',(#406));
#406 = SURFACE_STYLE_FILL_AREA(#407);
#407 = FILL_AREA_STYLE('',(#408));
#408 = FILL_AREA_STYLE_COLOUR('',#379);
#409 = STYLED_ITEM('color',(#410),#356);
#410 = PRESENTATION_STYLE_ASSIGNMENT((#411));
#411 = SURFACE_STYLE_USAGE(.BOTH.,#412);
#412 = SURFACE_SIDE_STYLE('',(#413));
#413 = SURFACE_STYLE_FILL_AREA(#414);
#414 = FILL_AREA_STYLE('',(#415));
#415 = FILL_AREA_STYLE_COLOUR('',#379);
ENDSEC;
END-ISO-10303-21;
