ISO-10303-21;
HEADER;
FILE_DESCRIPTION(('FreeCAD Model'),'2;1');
FILE_NAME(
'D:/KiCAD/packages3D-source/Connectors.pretty\\Pin_d1.3mm_L11.0mm.step',
  '2017-09-09T14:28:43',('kicad StepUp'),('ksu MCAD'),
  'Open CASCADE STEP processor 7.1','FreeCAD','Unknown');
FILE_SCHEMA(('AUTOMOTIVE_DESIGN { 1 0 10303 214 1 1 1 1 }'));
ENDSEC;
DATA;
#1 = APPLICATION_PROTOCOL_DEFINITION('international standard',
  'automotive_design',2000,#2);
#2 = APPLICATION_CONTEXT(
  'core data for automotive mechanical design processes');
#3 = SHAPE_DEFINITION_REPRESENTATION(#4,#10);
#4 = PRODUCT_DEFINITION_SHAPE('','',#5);
#5 = PRODUCT_DEFINITION('design','',#6,#9);
#6 = PRODUCT_DEFINITION_FORMATION('','',#7);
#7 = PRODUCT('Pin_d1.3mm_L11.0mm','Pin_d1.3mm_L11.0mm','',(#8));
#8 = PRODUCT_CONTEXT('',#2,'mechanical');
#9 = PRODUCT_DEFINITION_CONTEXT('part definition',#2,'design');
#10 = ADVANCED_BREP_SHAPE_REPRESENTATION('',(#11,#15),#429);
#11 = AXIS2_PLACEMENT_3D('',#12,#13,#14);
#12 = CARTESIAN_POINT('',(0.E+000,0.E+000,0.E+000));
#13 = DIRECTION('',(0.E+000,0.E+000,1.));
#14 = DIRECTION('',(1.,0.E+000,-0.E+000));
#15 = MANIFOLD_SOLID_BREP('',#16);
#16 = CLOSED_SHELL('',(#17,#57,#88,#119,#154,#178,#195,#219,#243,#260,
    #286,#298,#323,#349,#369,#394,#420));
#17 = ADVANCED_FACE('',(#18),#52,.F.);
#18 = FACE_BOUND('',#19,.F.);
#19 = EDGE_LOOP('',(#20,#30,#38,#46));
#20 = ORIENTED_EDGE('',*,*,#21,.T.);
#21 = EDGE_CURVE('',#22,#24,#26,.T.);
#22 = VERTEX_POINT('',#23);
#23 = CARTESIAN_POINT('',(0.7,0.E+000,0.E+000));
#24 = VERTEX_POINT('',#25);
#25 = CARTESIAN_POINT('',(0.7,-2.E-015,-4.15));
#26 = LINE('',#27,#28);
#27 = CARTESIAN_POINT('',(0.7,0.E+000,0.E+000));
#28 = VECTOR('',#29,1.);
#29 = DIRECTION('',(0.E+000,-4.4E-016,-1.));
#30 = ORIENTED_EDGE('',*,*,#31,.T.);
#31 = EDGE_CURVE('',#24,#32,#34,.T.);
#32 = VERTEX_POINT('',#33);
#33 = CARTESIAN_POINT('',(0.E+000,-0.7,-4.15));
#34 = LINE('',#35,#36);
#35 = CARTESIAN_POINT('',(0.7,-1.87E-015,-4.15));
#36 = VECTOR('',#37,1.);
#37 = DIRECTION('',(-0.707106781187,-0.707106781187,3.1E-016));
#38 = ORIENTED_EDGE('',*,*,#39,.F.);
#39 = EDGE_CURVE('',#40,#32,#42,.T.);
#40 = VERTEX_POINT('',#41);
#41 = CARTESIAN_POINT('',(0.E+000,-0.7,0.E+000));
#42 = LINE('',#43,#44);
#43 = CARTESIAN_POINT('',(0.E+000,-0.7,3.1E-016));
#44 = VECTOR('',#45,1.);
#45 = DIRECTION('',(0.E+000,-4.4E-016,-1.));
#46 = ORIENTED_EDGE('',*,*,#47,.F.);
#47 = EDGE_CURVE('',#22,#40,#48,.T.);
#48 = LINE('',#49,#50);
#49 = CARTESIAN_POINT('',(0.7,0.E+000,0.E+000));
#50 = VECTOR('',#51,1.);
#51 = DIRECTION('',(-0.707106781187,-0.707106781187,1.6E-016));
#52 = PLANE('',#53);
#53 = AXIS2_PLACEMENT_3D('',#54,#55,#56);
#54 = CARTESIAN_POINT('',(0.7,0.E+000,0.E+000));
#55 = DIRECTION('',(-0.707106781187,0.707106781187,-3.1E-016));
#56 = DIRECTION('',(-0.707106781187,-0.707106781187,3.1E-016));
#57 = ADVANCED_FACE('',(#58),#83,.F.);
#58 = FACE_BOUND('',#59,.F.);
#59 = EDGE_LOOP('',(#60,#70,#76,#77));
#60 = ORIENTED_EDGE('',*,*,#61,.T.);
#61 = EDGE_CURVE('',#62,#64,#66,.T.);
#62 = VERTEX_POINT('',#63);
#63 = CARTESIAN_POINT('',(0.E+000,0.7,0.E+000));
#64 = VERTEX_POINT('',#65);
#65 = CARTESIAN_POINT('',(0.E+000,0.7,-4.15));
#66 = LINE('',#67,#68);
#67 = CARTESIAN_POINT('',(0.E+000,0.7,-3.1E-016));
#68 = VECTOR('',#69,1.);
#69 = DIRECTION('',(0.E+000,-4.4E-016,-1.));
#70 = ORIENTED_EDGE('',*,*,#71,.T.);
#71 = EDGE_CURVE('',#64,#24,#72,.T.);
#72 = LINE('',#73,#74);
#73 = CARTESIAN_POINT('',(3.E-017,0.7,-4.15));
#74 = VECTOR('',#75,1.);
#75 = DIRECTION('',(0.707106781187,-0.707106781187,3.1E-016));
#76 = ORIENTED_EDGE('',*,*,#21,.F.);
#77 = ORIENTED_EDGE('',*,*,#78,.F.);
#78 = EDGE_CURVE('',#62,#22,#79,.T.);
#79 = LINE('',#80,#81);
#80 = CARTESIAN_POINT('',(0.E+000,0.7,-1.6E-016));
#81 = VECTOR('',#82,1.);
#82 = DIRECTION('',(0.707106781187,-0.707106781187,1.6E-016));
#83 = PLANE('',#84);
#84 = AXIS2_PLACEMENT_3D('',#85,#86,#87);
#85 = CARTESIAN_POINT('',(0.E+000,0.7,-3.1E-016));
#86 = DIRECTION('',(-0.707106781187,-0.707106781187,3.1E-016));
#87 = DIRECTION('',(0.707106781187,-0.707106781187,3.1E-016));
#88 = ADVANCED_FACE('',(#89),#114,.F.);
#89 = FACE_BOUND('',#90,.T.);
#90 = EDGE_LOOP('',(#91,#99,#100,#108));
#91 = ORIENTED_EDGE('',*,*,#92,.F.);
#92 = EDGE_CURVE('',#24,#93,#95,.T.);
#93 = VERTEX_POINT('',#94);
#94 = CARTESIAN_POINT('',(0.205025253169,-2.E-015,-4.5));
#95 = LINE('',#96,#97);
#96 = CARTESIAN_POINT('',(0.30167508439,-1.84E-015,-4.431658248944));
#97 = VECTOR('',#98,1.);
#98 = DIRECTION('',(-0.816496580928,-6.E-017,-0.57735026919));
#99 = ORIENTED_EDGE('',*,*,#31,.T.);
#100 = ORIENTED_EDGE('',*,*,#101,.T.);
#101 = EDGE_CURVE('',#32,#102,#104,.T.);
#102 = VERTEX_POINT('',#103);
#103 = CARTESIAN_POINT('',(0.E+000,-0.205025253169,-4.5));
#104 = LINE('',#105,#106);
#105 = CARTESIAN_POINT('',(-1.5E-016,-0.30167508439,-4.431658248944));
#106 = VECTOR('',#107,1.);
#107 = DIRECTION('',(0.E+000,0.816496580928,-0.57735026919));
#108 = ORIENTED_EDGE('',*,*,#109,.F.);
#109 = EDGE_CURVE('',#93,#102,#110,.T.);
#110 = LINE('',#111,#112);
#111 = CARTESIAN_POINT('',(0.452512626585,0.247487373415,-4.5));
#112 = VECTOR('',#113,1.);
#113 = DIRECTION('',(-0.707106781187,-0.707106781187,3.1E-016));
#114 = PLANE('',#115);
#115 = AXIS2_PLACEMENT_3D('',#116,#117,#118);
#116 = CARTESIAN_POINT('',(0.576256313292,0.123743686708,-4.325));
#117 = DIRECTION('',(-0.5,0.5,0.707106781187));
#118 = DIRECTION('',(0.707106781187,0.707106781187,-4.163336342344E-016)
  );
#119 = ADVANCED_FACE('',(#120,#131),#149,.T.);
#120 = FACE_BOUND('',#121,.F.);
#121 = EDGE_LOOP('',(#122));
#122 = ORIENTED_EDGE('',*,*,#123,.F.);
#123 = EDGE_CURVE('',#124,#124,#126,.T.);
#124 = VERTEX_POINT('',#125);
#125 = CARTESIAN_POINT('',(-1.163333333333,0.E+000,0.E+000));
#126 = CIRCLE('',#127,1.163333333333);
#127 = AXIS2_PLACEMENT_3D('',#128,#129,#130);
#128 = CARTESIAN_POINT('',(0.E+000,0.E+000,0.E+000));
#129 = DIRECTION('',(-0.E+000,-6.7E-016,-1.));
#130 = DIRECTION('',(-1.,0.E+000,0.E+000));
#131 = FACE_BOUND('',#132,.F.);
#132 = EDGE_LOOP('',(#133,#134,#142,#148));
#133 = ORIENTED_EDGE('',*,*,#47,.T.);
#134 = ORIENTED_EDGE('',*,*,#135,.T.);
#135 = EDGE_CURVE('',#40,#136,#138,.T.);
#136 = VERTEX_POINT('',#137);
#137 = CARTESIAN_POINT('',(-0.7,0.E+000,0.E+000));
#138 = LINE('',#139,#140);
#139 = CARTESIAN_POINT('',(0.E+000,-0.7,1.6E-016));
#140 = VECTOR('',#141,1.);
#141 = DIRECTION('',(-0.707106781187,0.707106781187,-1.6E-016));
#142 = ORIENTED_EDGE('',*,*,#143,.T.);
#143 = EDGE_CURVE('',#136,#62,#144,.T.);
#144 = LINE('',#145,#146);
#145 = CARTESIAN_POINT('',(-0.7,0.E+000,0.E+000));
#146 = VECTOR('',#147,1.);
#147 = DIRECTION('',(0.707106781187,0.707106781187,-1.6E-016));
#148 = ORIENTED_EDGE('',*,*,#78,.T.);
#149 = PLANE('',#150);
#150 = AXIS2_PLACEMENT_3D('',#151,#152,#153);
#151 = CARTESIAN_POINT('',(0.E+000,0.E+000,0.E+000));
#152 = DIRECTION('',(0.E+000,-6.7E-016,-1.));
#153 = DIRECTION('',(-1.,-0.E+000,-0.E+000));
#154 = ADVANCED_FACE('',(#155),#173,.F.);
#155 = FACE_BOUND('',#156,.F.);
#156 = EDGE_LOOP('',(#157,#158,#166,#172));
#157 = ORIENTED_EDGE('',*,*,#39,.T.);
#158 = ORIENTED_EDGE('',*,*,#159,.T.);
#159 = EDGE_CURVE('',#32,#160,#162,.T.);
#160 = VERTEX_POINT('',#161);
#161 = CARTESIAN_POINT('',(-0.7,-2.E-015,-4.15));
#162 = LINE('',#163,#164);
#163 = CARTESIAN_POINT('',(-3.E-017,-0.7,-4.15));
#164 = VECTOR('',#165,1.);
#165 = DIRECTION('',(-0.707106781187,0.707106781187,-3.1E-016));
#166 = ORIENTED_EDGE('',*,*,#167,.F.);
#167 = EDGE_CURVE('',#136,#160,#168,.T.);
#168 = LINE('',#169,#170);
#169 = CARTESIAN_POINT('',(-0.7,0.E+000,0.E+000));
#170 = VECTOR('',#171,1.);
#171 = DIRECTION('',(0.E+000,-4.4E-016,-1.));
#172 = ORIENTED_EDGE('',*,*,#135,.F.);
#173 = PLANE('',#174);
#174 = AXIS2_PLACEMENT_3D('',#175,#176,#177);
#175 = CARTESIAN_POINT('',(0.E+000,-0.7,3.1E-016));
#176 = DIRECTION('',(0.707106781187,0.707106781187,-3.1E-016));
#177 = DIRECTION('',(-0.707106781187,0.707106781187,-3.1E-016));
#178 = ADVANCED_FACE('',(#179),#190,.F.);
#179 = FACE_BOUND('',#180,.F.);
#180 = EDGE_LOOP('',(#181,#182,#188,#189));
#181 = ORIENTED_EDGE('',*,*,#167,.T.);
#182 = ORIENTED_EDGE('',*,*,#183,.T.);
#183 = EDGE_CURVE('',#160,#64,#184,.T.);
#184 = LINE('',#185,#186);
#185 = CARTESIAN_POINT('',(-0.7,-1.82E-015,-4.15));
#186 = VECTOR('',#187,1.);
#187 = DIRECTION('',(0.707106781187,0.707106781187,-3.1E-016));
#188 = ORIENTED_EDGE('',*,*,#61,.F.);
#189 = ORIENTED_EDGE('',*,*,#143,.F.);
#190 = PLANE('',#191);
#191 = AXIS2_PLACEMENT_3D('',#192,#193,#194);
#192 = CARTESIAN_POINT('',(-0.7,0.E+000,0.E+000));
#193 = DIRECTION('',(0.707106781187,-0.707106781187,3.1E-016));
#194 = DIRECTION('',(0.707106781187,0.707106781187,-3.1E-016));
#195 = ADVANCED_FACE('',(#196),#214,.F.);
#196 = FACE_BOUND('',#197,.T.);
#197 = EDGE_LOOP('',(#198,#206,#207,#208));
#198 = ORIENTED_EDGE('',*,*,#199,.F.);
#199 = EDGE_CURVE('',#64,#200,#202,.T.);
#200 = VERTEX_POINT('',#201);
#201 = CARTESIAN_POINT('',(0.E+000,0.205025253169,-4.5));
#202 = LINE('',#203,#204);
#203 = CARTESIAN_POINT('',(-1.9E-016,0.30167508439,-4.431658248944));
#204 = VECTOR('',#205,1.);
#205 = DIRECTION('',(-6.E-017,-0.816496580928,-0.57735026919));
#206 = ORIENTED_EDGE('',*,*,#71,.T.);
#207 = ORIENTED_EDGE('',*,*,#92,.T.);
#208 = ORIENTED_EDGE('',*,*,#209,.F.);
#209 = EDGE_CURVE('',#200,#93,#210,.T.);
#210 = LINE('',#211,#212);
#211 = CARTESIAN_POINT('',(-0.247487373415,0.452512626585,-4.5));
#212 = VECTOR('',#213,1.);
#213 = DIRECTION('',(0.707106781187,-0.707106781187,3.1E-016));
#214 = PLANE('',#215);
#215 = AXIS2_PLACEMENT_3D('',#216,#217,#218);
#216 = CARTESIAN_POINT('',(-0.123743686708,0.576256313292,-4.325));
#217 = DIRECTION('',(-0.5,-0.5,0.707106781187));
#218 = DIRECTION('',(-0.707106781187,0.707106781187,-4.163336342344E-016
    ));
#219 = ADVANCED_FACE('',(#220),#238,.T.);
#220 = FACE_BOUND('',#221,.T.);
#221 = EDGE_LOOP('',(#222,#223,#231,#237));
#222 = ORIENTED_EDGE('',*,*,#109,.T.);
#223 = ORIENTED_EDGE('',*,*,#224,.T.);
#224 = EDGE_CURVE('',#102,#225,#227,.T.);
#225 = VERTEX_POINT('',#226);
#226 = CARTESIAN_POINT('',(-0.205025253169,-2.E-015,-4.5));
#227 = LINE('',#228,#229);
#228 = CARTESIAN_POINT('',(0.247487373415,-0.452512626585,-4.5));
#229 = VECTOR('',#230,1.);
#230 = DIRECTION('',(-0.707106781187,0.707106781187,-3.1E-016));
#231 = ORIENTED_EDGE('',*,*,#232,.T.);
#232 = EDGE_CURVE('',#225,#200,#233,.T.);
#233 = LINE('',#234,#235);
#234 = CARTESIAN_POINT('',(-0.452512626585,-0.247487373415,-4.5));
#235 = VECTOR('',#236,1.);
#236 = DIRECTION('',(0.707106781187,0.707106781187,-3.1E-016));
#237 = ORIENTED_EDGE('',*,*,#209,.T.);
#238 = PLANE('',#239);
#239 = AXIS2_PLACEMENT_3D('',#240,#241,#242);
#240 = CARTESIAN_POINT('',(0.E+000,-8.881784197001E-016,-4.5));
#241 = DIRECTION('',(0.E+000,-2.2E-016,-1.));
#242 = DIRECTION('',(-1.,0.E+000,0.E+000));
#243 = ADVANCED_FACE('',(#244),#255,.F.);
#244 = FACE_BOUND('',#245,.T.);
#245 = EDGE_LOOP('',(#246,#247,#248,#254));
#246 = ORIENTED_EDGE('',*,*,#101,.F.);
#247 = ORIENTED_EDGE('',*,*,#159,.T.);
#248 = ORIENTED_EDGE('',*,*,#249,.T.);
#249 = EDGE_CURVE('',#160,#225,#250,.T.);
#250 = LINE('',#251,#252);
#251 = CARTESIAN_POINT('',(-0.30167508439,-2.08E-015,-4.431658248944));
#252 = VECTOR('',#253,1.);
#253 = DIRECTION('',(0.816496580928,-3.2E-016,-0.57735026919));
#254 = ORIENTED_EDGE('',*,*,#224,.F.);
#255 = PLANE('',#256);
#256 = AXIS2_PLACEMENT_3D('',#257,#258,#259);
#257 = CARTESIAN_POINT('',(0.123743686708,-0.576256313292,-4.325));
#258 = DIRECTION('',(0.5,0.5,0.707106781187));
#259 = DIRECTION('',(0.707106781187,-0.707106781187,2.22044604925E-016)
  );
#260 = ADVANCED_FACE('',(#261),#281,.T.);
#261 = FACE_BOUND('',#262,.F.);
#262 = EDGE_LOOP('',(#263,#264,#273,#280));
#263 = ORIENTED_EDGE('',*,*,#123,.T.);
#264 = ORIENTED_EDGE('',*,*,#265,.T.);
#265 = EDGE_CURVE('',#124,#266,#268,.T.);
#266 = VERTEX_POINT('',#267);
#267 = CARTESIAN_POINT('',(-1.25,0.E+000,8.666666666695E-002));
#268 = CIRCLE('',#269,8.6666666667E-002);
#269 = AXIS2_PLACEMENT_3D('',#270,#271,#272);
#270 = CARTESIAN_POINT('',(-1.163333333333,2.E-017,8.6666666667E-002));
#271 = DIRECTION('',(0.E+000,1.,-2.2E-016));
#272 = DIRECTION('',(-1.,0.E+000,0.E+000));
#273 = ORIENTED_EDGE('',*,*,#274,.F.);
#274 = EDGE_CURVE('',#266,#266,#275,.T.);
#275 = CIRCLE('',#276,1.25);
#276 = AXIS2_PLACEMENT_3D('',#277,#278,#279);
#277 = CARTESIAN_POINT('',(0.E+000,6.E-017,8.666666666695E-002));
#278 = DIRECTION('',(-0.E+000,-6.7E-016,-1.));
#279 = DIRECTION('',(-1.,0.E+000,0.E+000));
#280 = ORIENTED_EDGE('',*,*,#265,.F.);
#281 = TOROIDAL_SURFACE('',#282,1.163333333333,8.6666666667E-002);
#282 = AXIS2_PLACEMENT_3D('',#283,#284,#285);
#283 = CARTESIAN_POINT('',(0.E+000,6.E-017,8.6666666667E-002));
#284 = DIRECTION('',(0.E+000,6.7E-016,1.));
#285 = DIRECTION('',(-1.,0.E+000,0.E+000));
#286 = ADVANCED_FACE('',(#287),#293,.F.);
#287 = FACE_BOUND('',#288,.T.);
#288 = EDGE_LOOP('',(#289,#290,#291,#292));
#289 = ORIENTED_EDGE('',*,*,#249,.F.);
#290 = ORIENTED_EDGE('',*,*,#183,.T.);
#291 = ORIENTED_EDGE('',*,*,#199,.T.);
#292 = ORIENTED_EDGE('',*,*,#232,.F.);
#293 = PLANE('',#294);
#294 = AXIS2_PLACEMENT_3D('',#295,#296,#297);
#295 = CARTESIAN_POINT('',(-0.576256313292,-0.123743686708,-4.325));
#296 = DIRECTION('',(0.5,-0.5,0.707106781187));
#297 = DIRECTION('',(-0.707106781187,-0.707106781187,2.775557561563E-016
    ));
#298 = ADVANCED_FACE('',(#299),#318,.T.);
#299 = FACE_BOUND('',#300,.F.);
#300 = EDGE_LOOP('',(#301,#302,#310,#317));
#301 = ORIENTED_EDGE('',*,*,#274,.T.);
#302 = ORIENTED_EDGE('',*,*,#303,.T.);
#303 = EDGE_CURVE('',#266,#304,#306,.T.);
#304 = VERTEX_POINT('',#305);
#305 = CARTESIAN_POINT('',(-1.25,0.E+000,0.413333333333));
#306 = LINE('',#307,#308);
#307 = CARTESIAN_POINT('',(-1.25,2.E-017,8.666666666695E-002));
#308 = VECTOR('',#309,1.);
#309 = DIRECTION('',(0.E+000,2.2E-016,1.));
#310 = ORIENTED_EDGE('',*,*,#311,.F.);
#311 = EDGE_CURVE('',#304,#304,#312,.T.);
#312 = CIRCLE('',#313,1.25);
#313 = AXIS2_PLACEMENT_3D('',#314,#315,#316);
#314 = CARTESIAN_POINT('',(0.E+000,2.8E-016,0.413333333333));
#315 = DIRECTION('',(-0.E+000,-6.7E-016,-1.));
#316 = DIRECTION('',(-1.,0.E+000,0.E+000));
#317 = ORIENTED_EDGE('',*,*,#303,.F.);
#318 = CYLINDRICAL_SURFACE('',#319,1.25);
#319 = AXIS2_PLACEMENT_3D('',#320,#321,#322);
#320 = CARTESIAN_POINT('',(0.E+000,6.E-017,8.666666666695E-002));
#321 = DIRECTION('',(0.E+000,6.7E-016,1.));
#322 = DIRECTION('',(-1.,0.E+000,0.E+000));
#323 = ADVANCED_FACE('',(#324),#344,.T.);
#324 = FACE_BOUND('',#325,.F.);
#325 = EDGE_LOOP('',(#326,#327,#336,#343));
#326 = ORIENTED_EDGE('',*,*,#311,.T.);
#327 = ORIENTED_EDGE('',*,*,#328,.T.);
#328 = EDGE_CURVE('',#304,#329,#331,.T.);
#329 = VERTEX_POINT('',#330);
#330 = CARTESIAN_POINT('',(-1.163333333333,1.E-015,0.5));
#331 = CIRCLE('',#332,8.6666666667E-002);
#332 = AXIS2_PLACEMENT_3D('',#333,#334,#335);
#333 = CARTESIAN_POINT('',(-1.163333333333,9.E-017,0.413333333333));
#334 = DIRECTION('',(0.E+000,1.,-2.2E-016));
#335 = DIRECTION('',(-1.,0.E+000,0.E+000));
#336 = ORIENTED_EDGE('',*,*,#337,.F.);
#337 = EDGE_CURVE('',#329,#329,#338,.T.);
#338 = CIRCLE('',#339,1.163333333333);
#339 = AXIS2_PLACEMENT_3D('',#340,#341,#342);
#340 = CARTESIAN_POINT('',(0.E+000,3.3E-016,0.5));
#341 = DIRECTION('',(-0.E+000,-6.7E-016,-1.));
#342 = DIRECTION('',(-1.,0.E+000,0.E+000));
#343 = ORIENTED_EDGE('',*,*,#328,.F.);
#344 = TOROIDAL_SURFACE('',#345,1.163333333333,8.6666666667E-002);
#345 = AXIS2_PLACEMENT_3D('',#346,#347,#348);
#346 = CARTESIAN_POINT('',(0.E+000,2.8E-016,0.413333333333));
#347 = DIRECTION('',(0.E+000,6.7E-016,1.));
#348 = DIRECTION('',(-1.,0.E+000,0.E+000));
#349 = ADVANCED_FACE('',(#350,#353),#364,.F.);
#350 = FACE_BOUND('',#351,.F.);
#351 = EDGE_LOOP('',(#352));
#352 = ORIENTED_EDGE('',*,*,#337,.T.);
#353 = FACE_BOUND('',#354,.F.);
#354 = EDGE_LOOP('',(#355));
#355 = ORIENTED_EDGE('',*,*,#356,.F.);
#356 = EDGE_CURVE('',#357,#357,#359,.T.);
#357 = VERTEX_POINT('',#358);
#358 = CARTESIAN_POINT('',(-0.65,1.E-015,0.5));
#359 = CIRCLE('',#360,0.65);
#360 = AXIS2_PLACEMENT_3D('',#361,#362,#363);
#361 = CARTESIAN_POINT('',(0.E+000,3.3E-016,0.5));
#362 = DIRECTION('',(-0.E+000,-6.7E-016,-1.));
#363 = DIRECTION('',(-1.,0.E+000,0.E+000));
#364 = PLANE('',#365);
#365 = AXIS2_PLACEMENT_3D('',#366,#367,#368);
#366 = CARTESIAN_POINT('',(0.E+000,3.3E-016,0.5));
#367 = DIRECTION('',(0.E+000,-6.7E-016,-1.));
#368 = DIRECTION('',(-1.,0.E+000,0.E+000));
#369 = ADVANCED_FACE('',(#370),#389,.T.);
#370 = FACE_BOUND('',#371,.F.);
#371 = EDGE_LOOP('',(#372,#373,#381,#388));
#372 = ORIENTED_EDGE('',*,*,#356,.T.);
#373 = ORIENTED_EDGE('',*,*,#374,.T.);
#374 = EDGE_CURVE('',#357,#375,#377,.T.);
#375 = VERTEX_POINT('',#376);
#376 = CARTESIAN_POINT('',(-0.65,7.E-015,6.3375));
#377 = LINE('',#378,#379);
#378 = CARTESIAN_POINT('',(-0.65,1.1E-016,0.5));
#379 = VECTOR('',#380,1.);
#380 = DIRECTION('',(0.E+000,2.2E-016,1.));
#381 = ORIENTED_EDGE('',*,*,#382,.F.);
#382 = EDGE_CURVE('',#375,#375,#383,.T.);
#383 = CIRCLE('',#384,0.65);
#384 = AXIS2_PLACEMENT_3D('',#385,#386,#387);
#385 = CARTESIAN_POINT('',(0.E+000,4.22E-015,6.3375));
#386 = DIRECTION('',(-0.E+000,-6.7E-016,-1.));
#387 = DIRECTION('',(-1.,0.E+000,0.E+000));
#388 = ORIENTED_EDGE('',*,*,#374,.F.);
#389 = CYLINDRICAL_SURFACE('',#390,0.65);
#390 = AXIS2_PLACEMENT_3D('',#391,#392,#393);
#391 = CARTESIAN_POINT('',(0.E+000,3.3E-016,0.5));
#392 = DIRECTION('',(0.E+000,6.7E-016,1.));
#393 = DIRECTION('',(-1.,0.E+000,0.E+000));
#394 = ADVANCED_FACE('',(#395),#415,.T.);
#395 = FACE_BOUND('',#396,.F.);
#396 = EDGE_LOOP('',(#397,#398,#407,#414));
#397 = ORIENTED_EDGE('',*,*,#382,.T.);
#398 = ORIENTED_EDGE('',*,*,#399,.T.);
#399 = EDGE_CURVE('',#375,#400,#402,.T.);
#400 = VERTEX_POINT('',#401);
#401 = CARTESIAN_POINT('',(-0.4875,7.E-015,6.5));
#402 = CIRCLE('',#403,0.1625);
#403 = AXIS2_PLACEMENT_3D('',#404,#405,#406);
#404 = CARTESIAN_POINT('',(-0.4875,1.41E-015,6.3375));
#405 = DIRECTION('',(0.E+000,1.,-2.2E-016));
#406 = DIRECTION('',(-1.,0.E+000,0.E+000));
#407 = ORIENTED_EDGE('',*,*,#408,.F.);
#408 = EDGE_CURVE('',#400,#400,#409,.T.);
#409 = CIRCLE('',#410,0.4875);
#410 = AXIS2_PLACEMENT_3D('',#411,#412,#413);
#411 = CARTESIAN_POINT('',(0.E+000,4.33E-015,6.5));
#412 = DIRECTION('',(-0.E+000,-6.7E-016,-1.));
#413 = DIRECTION('',(-1.,0.E+000,0.E+000));
#414 = ORIENTED_EDGE('',*,*,#399,.F.);
#415 = TOROIDAL_SURFACE('',#416,0.4875,0.1625);
#416 = AXIS2_PLACEMENT_3D('',#417,#418,#419);
#417 = CARTESIAN_POINT('',(0.E+000,4.22E-015,6.3375));
#418 = DIRECTION('',(0.E+000,6.7E-016,1.));
#419 = DIRECTION('',(-1.,0.E+000,0.E+000));
#420 = ADVANCED_FACE('',(#421),#424,.F.);
#421 = FACE_BOUND('',#422,.F.);
#422 = EDGE_LOOP('',(#423));
#423 = ORIENTED_EDGE('',*,*,#408,.T.);
#424 = PLANE('',#425);
#425 = AXIS2_PLACEMENT_3D('',#426,#427,#428);
#426 = CARTESIAN_POINT('',(0.E+000,4.33E-015,6.5));
#427 = DIRECTION('',(0.E+000,-6.7E-016,-1.));
#428 = DIRECTION('',(-1.,0.E+000,0.E+000));
#429 = ( GEOMETRIC_REPRESENTATION_CONTEXT(3) 
GLOBAL_UNCERTAINTY_ASSIGNED_CONTEXT((#433)) GLOBAL_UNIT_ASSIGNED_CONTEXT
((#430,#431,#432)) REPRESENTATION_CONTEXT('Context #1',
  '3D Context with UNIT and UNCERTAINTY') );
#430 = ( LENGTH_UNIT() NAMED_UNIT(*) SI_UNIT(.MILLI.,.METRE.) );
#431 = ( NAMED_UNIT(*) PLANE_ANGLE_UNIT() SI_UNIT($,.RADIAN.) );
#432 = ( NAMED_UNIT(*) SI_UNIT($,.STERADIAN.) SOLID_ANGLE_UNIT() );
#433 = UNCERTAINTY_MEASURE_WITH_UNIT(LENGTH_MEASURE(2.E-005),#430,
  'distance_accuracy_value','confusion accuracy');
#434 = PRODUCT_RELATED_PRODUCT_CATEGORY('part',$,(#7));
#435 = MECHANICAL_DESIGN_GEOMETRIC_PRESENTATION_REPRESENTATION('',(#436)
  ,#429);
#436 = STYLED_ITEM('color',(#437),#15);
#437 = PRESENTATION_STYLE_ASSIGNMENT((#438,#444));
#438 = SURFACE_STYLE_USAGE(.BOTH.,#439);
#439 = SURFACE_SIDE_STYLE('',(#440));
#440 = SURFACE_STYLE_FILL_AREA(#441);
#441 = FILL_AREA_STYLE('',(#442));
#442 = FILL_AREA_STYLE_COLOUR('',#443);
#443 = COLOUR_RGB('',0.824000000954,0.819999992847,0.78100001812);
#444 = CURVE_STYLE('',#445,POSITIVE_LENGTH_MEASURE(0.1),#443);
#445 = DRAUGHTING_PRE_DEFINED_CURVE_FONT('continuous');
ENDSEC;
END-ISO-10303-21;
