ISO-10303-21;
HEADER;
FILE_DESCRIPTION(('FreeCAD Model'),'2;1');
FILE_NAME(
'D:/KiCAD/packages3D-source/Connectors.pretty\\
Pin_d1.3mm_L10.0mm_W3.5mm_Flat.step','2017-09-10T12:43:37',(
    'kicad StepUp'),('ksu MCAD'),'Open CASCADE STEP processor 7.1',
  'FreeCAD','Unknown');
FILE_SCHEMA(('AUTOMOTIVE_DESIGN { 1 0 10303 214 1 1 1 1 }'));
ENDSEC;
DATA;
#1 = APPLICATION_PROTOCOL_DEFINITION('international standard',
  'automotive_design',2000,#2);
#2 = APPLICATION_CONTEXT(
  'core data for automotive mechanical design processes');
#3 = SHAPE_DEFINITION_REPRESENTATION(#4,#10);
#4 = PRODUCT_DEFINITION_SHAPE('','',#5);
#5 = PRODUCT_DEFINITION('design','',#6,#9);
#6 = PRODUCT_DEFINITION_FORMATION('','',#7);
#7 = PRODUCT('Pin_d1.3mm_L10.0mm_W3.5mm_Flat',
  'Pin_d1.3mm_L10.0mm_W3.5mm_Flat','',(#8));
#8 = PRODUCT_CONTEXT('',#2,'mechanical');
#9 = PRODUCT_DEFINITION_CONTEXT('part definition',#2,'design');
#10 = ADVANCED_BREP_SHAPE_REPRESENTATION('',(#11,#15),#340);
#11 = AXIS2_PLACEMENT_3D('',#12,#13,#14);
#12 = CARTESIAN_POINT('',(0.E+000,0.E+000,0.E+000));
#13 = DIRECTION('',(0.E+000,0.E+000,1.));
#14 = DIRECTION('',(1.,0.E+000,-0.E+000));
#15 = MANIFOLD_SOLID_BREP('',#16);
#16 = CLOSED_SHELL('',(#17,#57,#88,#121,#152,#183,#214,#247,#269,#302,
    #321));
#17 = ADVANCED_FACE('',(#18),#52,.F.);
#18 = FACE_BOUND('',#19,.F.);
#19 = EDGE_LOOP('',(#20,#30,#38,#46));
#20 = ORIENTED_EDGE('',*,*,#21,.T.);
#21 = EDGE_CURVE('',#22,#24,#26,.T.);
#22 = VERTEX_POINT('',#23);
#23 = CARTESIAN_POINT('',(-0.7,-0.3,6.661338147751E-017));
#24 = VERTEX_POINT('',#25);
#25 = CARTESIAN_POINT('',(-0.7,0.3,-6.661338147751E-017));
#26 = LINE('',#27,#28);
#27 = CARTESIAN_POINT('',(-0.7,-0.3,1.966133814775E-016));
#28 = VECTOR('',#29,1.);
#29 = DIRECTION('',(0.E+000,1.,-6.62044604925E-016));
#30 = ORIENTED_EDGE('',*,*,#31,.T.);
#31 = EDGE_CURVE('',#24,#32,#34,.T.);
#32 = VERTEX_POINT('',#33);
#33 = CARTESIAN_POINT('',(-1.75,0.3,-6.661338147751E-017));
#34 = LINE('',#35,#36);
#35 = CARTESIAN_POINT('',(-0.7,0.3,-6.661338147751E-017));
#36 = VECTOR('',#37,1.);
#37 = DIRECTION('',(-1.,0.E+000,0.E+000));
#38 = ORIENTED_EDGE('',*,*,#39,.F.);
#39 = EDGE_CURVE('',#40,#32,#42,.T.);
#40 = VERTEX_POINT('',#41);
#41 = CARTESIAN_POINT('',(-1.75,-0.3,6.661338147751E-017));
#42 = LINE('',#43,#44);
#43 = CARTESIAN_POINT('',(-1.75,-0.3,1.966133814775E-016));
#44 = VECTOR('',#45,1.);
#45 = DIRECTION('',(0.E+000,1.,-6.62044604925E-016));
#46 = ORIENTED_EDGE('',*,*,#47,.F.);
#47 = EDGE_CURVE('',#22,#40,#48,.T.);
#48 = LINE('',#49,#50);
#49 = CARTESIAN_POINT('',(-0.7,-0.3,6.661338147751E-017));
#50 = VECTOR('',#51,1.);
#51 = DIRECTION('',(-1.,0.E+000,0.E+000));
#52 = PLANE('',#53);
#53 = AXIS2_PLACEMENT_3D('',#54,#55,#56);
#54 = CARTESIAN_POINT('',(-0.7,-0.3,1.966133814775E-016));
#55 = DIRECTION('',(0.E+000,6.62044604925E-016,1.));
#56 = DIRECTION('',(-1.,0.E+000,0.E+000));
#57 = ADVANCED_FACE('',(#58),#83,.F.);
#58 = FACE_BOUND('',#59,.F.);
#59 = EDGE_LOOP('',(#60,#61,#69,#77));
#60 = ORIENTED_EDGE('',*,*,#39,.T.);
#61 = ORIENTED_EDGE('',*,*,#62,.T.);
#62 = EDGE_CURVE('',#32,#63,#65,.T.);
#63 = VERTEX_POINT('',#64);
#64 = CARTESIAN_POINT('',(-1.75,0.3,4.75));
#65 = LINE('',#66,#67);
#66 = CARTESIAN_POINT('',(-1.75,0.3,-6.661338147751E-017));
#67 = VECTOR('',#68,1.);
#68 = DIRECTION('',(0.E+000,2.22044604925E-016,1.));
#69 = ORIENTED_EDGE('',*,*,#70,.F.);
#70 = EDGE_CURVE('',#71,#63,#73,.T.);
#71 = VERTEX_POINT('',#72);
#72 = CARTESIAN_POINT('',(-1.75,-0.3,4.75));
#73 = LINE('',#74,#75);
#74 = CARTESIAN_POINT('',(-1.75,-0.3,4.75));
#75 = VECTOR('',#76,1.);
#76 = DIRECTION('',(0.E+000,1.,-6.62044604925E-016));
#77 = ORIENTED_EDGE('',*,*,#78,.F.);
#78 = EDGE_CURVE('',#40,#71,#79,.T.);
#79 = LINE('',#80,#81);
#80 = CARTESIAN_POINT('',(-1.75,-0.3,6.661338147751E-017));
#81 = VECTOR('',#82,1.);
#82 = DIRECTION('',(0.E+000,2.22044604925E-016,1.));
#83 = PLANE('',#84);
#84 = AXIS2_PLACEMENT_3D('',#85,#86,#87);
#85 = CARTESIAN_POINT('',(-1.75,-0.3,1.966133814775E-016));
#86 = DIRECTION('',(1.,0.E+000,0.E+000));
#87 = DIRECTION('',(0.E+000,6.62044604925E-016,1.));
#88 = ADVANCED_FACE('',(#89),#116,.T.);
#89 = FACE_BOUND('',#90,.F.);
#90 = EDGE_LOOP('',(#91,#92,#101,#109));
#91 = ORIENTED_EDGE('',*,*,#70,.T.);
#92 = ORIENTED_EDGE('',*,*,#93,.T.);
#93 = EDGE_CURVE('',#63,#94,#96,.T.);
#94 = VERTEX_POINT('',#95);
#95 = CARTESIAN_POINT('',(1.75,0.3,4.75));
#96 = CIRCLE('',#97,1.75);
#97 = AXIS2_PLACEMENT_3D('',#98,#99,#100);
#98 = CARTESIAN_POINT('',(0.E+000,0.3,4.75));
#99 = DIRECTION('',(0.E+000,1.,-2.22044604925E-016));
#100 = DIRECTION('',(-1.,0.E+000,0.E+000));
#101 = ORIENTED_EDGE('',*,*,#102,.F.);
#102 = EDGE_CURVE('',#103,#94,#105,.T.);
#103 = VERTEX_POINT('',#104);
#104 = CARTESIAN_POINT('',(1.75,-0.3,4.75));
#105 = LINE('',#106,#107);
#106 = CARTESIAN_POINT('',(1.75,-0.3,4.75));
#107 = VECTOR('',#108,1.);
#108 = DIRECTION('',(0.E+000,1.,-6.62044604925E-016));
#109 = ORIENTED_EDGE('',*,*,#110,.F.);
#110 = EDGE_CURVE('',#71,#103,#111,.T.);
#111 = CIRCLE('',#112,1.75);
#112 = AXIS2_PLACEMENT_3D('',#113,#114,#115);
#113 = CARTESIAN_POINT('',(0.E+000,-0.3,4.75));
#114 = DIRECTION('',(0.E+000,1.,-2.22044604925E-016));
#115 = DIRECTION('',(-1.,0.E+000,0.E+000));
#116 = CYLINDRICAL_SURFACE('',#117,1.75);
#117 = AXIS2_PLACEMENT_3D('',#118,#119,#120);
#118 = CARTESIAN_POINT('',(0.E+000,-0.3,4.75));
#119 = DIRECTION('',(0.E+000,-1.,6.62044604925E-016));
#120 = DIRECTION('',(-1.,0.E+000,0.E+000));
#121 = ADVANCED_FACE('',(#122),#147,.F.);
#122 = FACE_BOUND('',#123,.F.);
#123 = EDGE_LOOP('',(#124,#125,#133,#141));
#124 = ORIENTED_EDGE('',*,*,#102,.T.);
#125 = ORIENTED_EDGE('',*,*,#126,.T.);
#126 = EDGE_CURVE('',#94,#127,#129,.T.);
#127 = VERTEX_POINT('',#128);
#128 = CARTESIAN_POINT('',(1.75,0.3,-6.661338147751E-017));
#129 = LINE('',#130,#131);
#130 = CARTESIAN_POINT('',(1.75,0.3,4.75));
#131 = VECTOR('',#132,1.);
#132 = DIRECTION('',(0.E+000,-2.22044604925E-016,-1.));
#133 = ORIENTED_EDGE('',*,*,#134,.F.);
#134 = EDGE_CURVE('',#135,#127,#137,.T.);
#135 = VERTEX_POINT('',#136);
#136 = CARTESIAN_POINT('',(1.75,-0.3,6.661338147751E-017));
#137 = LINE('',#138,#139);
#138 = CARTESIAN_POINT('',(1.75,-0.3,1.966133814775E-016));
#139 = VECTOR('',#140,1.);
#140 = DIRECTION('',(0.E+000,1.,-6.62044604925E-016));
#141 = ORIENTED_EDGE('',*,*,#142,.F.);
#142 = EDGE_CURVE('',#103,#135,#143,.T.);
#143 = LINE('',#144,#145);
#144 = CARTESIAN_POINT('',(1.75,-0.3,4.75));
#145 = VECTOR('',#146,1.);
#146 = DIRECTION('',(0.E+000,-2.22044604925E-016,-1.));
#147 = PLANE('',#148);
#148 = AXIS2_PLACEMENT_3D('',#149,#150,#151);
#149 = CARTESIAN_POINT('',(1.75,-0.3,4.75));
#150 = DIRECTION('',(-1.,-0.E+000,0.E+000));
#151 = DIRECTION('',(0.E+000,-6.62044604925E-016,-1.));
#152 = ADVANCED_FACE('',(#153),#178,.F.);
#153 = FACE_BOUND('',#154,.F.);
#154 = EDGE_LOOP('',(#155,#156,#164,#172));
#155 = ORIENTED_EDGE('',*,*,#134,.T.);
#156 = ORIENTED_EDGE('',*,*,#157,.T.);
#157 = EDGE_CURVE('',#127,#158,#160,.T.);
#158 = VERTEX_POINT('',#159);
#159 = CARTESIAN_POINT('',(0.7,0.3,-6.661338147751E-017));
#160 = LINE('',#161,#162);
#161 = CARTESIAN_POINT('',(1.75,0.3,-6.661338147751E-017));
#162 = VECTOR('',#163,1.);
#163 = DIRECTION('',(-1.,0.E+000,0.E+000));
#164 = ORIENTED_EDGE('',*,*,#165,.F.);
#165 = EDGE_CURVE('',#166,#158,#168,.T.);
#166 = VERTEX_POINT('',#167);
#167 = CARTESIAN_POINT('',(0.7,-0.3,6.661338147751E-017));
#168 = LINE('',#169,#170);
#169 = CARTESIAN_POINT('',(0.7,-0.3,1.966133814775E-016));
#170 = VECTOR('',#171,1.);
#171 = DIRECTION('',(0.E+000,1.,-6.62044604925E-016));
#172 = ORIENTED_EDGE('',*,*,#173,.F.);
#173 = EDGE_CURVE('',#135,#166,#174,.T.);
#174 = LINE('',#175,#176);
#175 = CARTESIAN_POINT('',(1.75,-0.3,6.661338147751E-017));
#176 = VECTOR('',#177,1.);
#177 = DIRECTION('',(-1.,0.E+000,0.E+000));
#178 = PLANE('',#179);
#179 = AXIS2_PLACEMENT_3D('',#180,#181,#182);
#180 = CARTESIAN_POINT('',(1.75,-0.3,1.966133814775E-016));
#181 = DIRECTION('',(0.E+000,6.62044604925E-016,1.));
#182 = DIRECTION('',(-1.,0.E+000,0.E+000));
#183 = ADVANCED_FACE('',(#184),#209,.F.);
#184 = FACE_BOUND('',#185,.F.);
#185 = EDGE_LOOP('',(#186,#187,#195,#203));
#186 = ORIENTED_EDGE('',*,*,#165,.T.);
#187 = ORIENTED_EDGE('',*,*,#188,.T.);
#188 = EDGE_CURVE('',#158,#189,#191,.T.);
#189 = VERTEX_POINT('',#190);
#190 = CARTESIAN_POINT('',(0.7,0.3,-2.8));
#191 = LINE('',#192,#193);
#192 = CARTESIAN_POINT('',(0.7,0.3,-6.661338147751E-017));
#193 = VECTOR('',#194,1.);
#194 = DIRECTION('',(0.E+000,-2.22044604925E-016,-1.));
#195 = ORIENTED_EDGE('',*,*,#196,.F.);
#196 = EDGE_CURVE('',#197,#189,#199,.T.);
#197 = VERTEX_POINT('',#198);
#198 = CARTESIAN_POINT('',(0.7,-0.3,-2.8));
#199 = LINE('',#200,#201);
#200 = CARTESIAN_POINT('',(0.7,-0.3,-2.8));
#201 = VECTOR('',#202,1.);
#202 = DIRECTION('',(0.E+000,1.,-6.62044604925E-016));
#203 = ORIENTED_EDGE('',*,*,#204,.F.);
#204 = EDGE_CURVE('',#166,#197,#205,.T.);
#205 = LINE('',#206,#207);
#206 = CARTESIAN_POINT('',(0.7,-0.3,6.661338147751E-017));
#207 = VECTOR('',#208,1.);
#208 = DIRECTION('',(0.E+000,-2.22044604925E-016,-1.));
#209 = PLANE('',#210);
#210 = AXIS2_PLACEMENT_3D('',#211,#212,#213);
#211 = CARTESIAN_POINT('',(0.7,-0.3,1.966133814775E-016));
#212 = DIRECTION('',(-1.,-0.E+000,0.E+000));
#213 = DIRECTION('',(0.E+000,-6.62044604925E-016,-1.));
#214 = ADVANCED_FACE('',(#215),#242,.T.);
#215 = FACE_BOUND('',#216,.F.);
#216 = EDGE_LOOP('',(#217,#218,#227,#235));
#217 = ORIENTED_EDGE('',*,*,#196,.T.);
#218 = ORIENTED_EDGE('',*,*,#219,.T.);
#219 = EDGE_CURVE('',#189,#220,#222,.T.);
#220 = VERTEX_POINT('',#221);
#221 = CARTESIAN_POINT('',(-0.7,0.3,-2.8));
#222 = CIRCLE('',#223,0.7);
#223 = AXIS2_PLACEMENT_3D('',#224,#225,#226);
#224 = CARTESIAN_POINT('',(0.E+000,0.3,-2.8));
#225 = DIRECTION('',(0.E+000,1.,-2.22044604925E-016));
#226 = DIRECTION('',(-1.,0.E+000,0.E+000));
#227 = ORIENTED_EDGE('',*,*,#228,.F.);
#228 = EDGE_CURVE('',#229,#220,#231,.T.);
#229 = VERTEX_POINT('',#230);
#230 = CARTESIAN_POINT('',(-0.7,-0.3,-2.8));
#231 = LINE('',#232,#233);
#232 = CARTESIAN_POINT('',(-0.7,-0.3,-2.8));
#233 = VECTOR('',#234,1.);
#234 = DIRECTION('',(0.E+000,1.,-6.62044604925E-016));
#235 = ORIENTED_EDGE('',*,*,#236,.F.);
#236 = EDGE_CURVE('',#197,#229,#237,.T.);
#237 = CIRCLE('',#238,0.7);
#238 = AXIS2_PLACEMENT_3D('',#239,#240,#241);
#239 = CARTESIAN_POINT('',(0.E+000,-0.3,-2.8));
#240 = DIRECTION('',(0.E+000,1.,-2.22044604925E-016));
#241 = DIRECTION('',(-1.,0.E+000,0.E+000));
#242 = CYLINDRICAL_SURFACE('',#243,0.7);
#243 = AXIS2_PLACEMENT_3D('',#244,#245,#246);
#244 = CARTESIAN_POINT('',(0.E+000,-0.3,-2.8));
#245 = DIRECTION('',(0.E+000,-1.,6.62044604925E-016));
#246 = DIRECTION('',(-1.,0.E+000,0.E+000));
#247 = ADVANCED_FACE('',(#248),#264,.T.);
#248 = FACE_BOUND('',#249,.T.);
#249 = EDGE_LOOP('',(#250,#251,#257,#258));
#250 = ORIENTED_EDGE('',*,*,#21,.T.);
#251 = ORIENTED_EDGE('',*,*,#252,.T.);
#252 = EDGE_CURVE('',#24,#220,#253,.T.);
#253 = LINE('',#254,#255);
#254 = CARTESIAN_POINT('',(-0.7,0.3,-6.661338147751E-017));
#255 = VECTOR('',#256,1.);
#256 = DIRECTION('',(0.E+000,-2.22044604925E-016,-1.));
#257 = ORIENTED_EDGE('',*,*,#228,.F.);
#258 = ORIENTED_EDGE('',*,*,#259,.F.);
#259 = EDGE_CURVE('',#22,#229,#260,.T.);
#260 = LINE('',#261,#262);
#261 = CARTESIAN_POINT('',(-0.7,-0.3,6.661338147751E-017));
#262 = VECTOR('',#263,1.);
#263 = DIRECTION('',(0.E+000,-2.22044604925E-016,-1.));
#264 = PLANE('',#265);
#265 = AXIS2_PLACEMENT_3D('',#266,#267,#268);
#266 = CARTESIAN_POINT('',(-0.7,-0.3,1.966133814775E-016));
#267 = DIRECTION('',(-1.,-0.E+000,0.E+000));
#268 = DIRECTION('',(0.E+000,-6.62044604925E-016,-1.));
#269 = ADVANCED_FACE('',(#270),#297,.F.);
#270 = FACE_BOUND('',#271,.T.);
#271 = EDGE_LOOP('',(#272,#282,#289,#290));
#272 = ORIENTED_EDGE('',*,*,#273,.T.);
#273 = EDGE_CURVE('',#274,#276,#278,.T.);
#274 = VERTEX_POINT('',#275);
#275 = CARTESIAN_POINT('',(-0.6,-0.3,4.75));
#276 = VERTEX_POINT('',#277);
#277 = CARTESIAN_POINT('',(-0.6,0.3,4.75));
#278 = LINE('',#279,#280);
#279 = CARTESIAN_POINT('',(-0.6,-0.3,4.75));
#280 = VECTOR('',#281,1.);
#281 = DIRECTION('',(0.E+000,1.,-6.62044604925E-016));
#282 = ORIENTED_EDGE('',*,*,#283,.T.);
#283 = EDGE_CURVE('',#276,#276,#284,.T.);
#284 = CIRCLE('',#285,0.6);
#285 = AXIS2_PLACEMENT_3D('',#286,#287,#288);
#286 = CARTESIAN_POINT('',(0.E+000,0.3,4.75));
#287 = DIRECTION('',(0.E+000,1.,-2.22044604925E-016));
#288 = DIRECTION('',(-1.,0.E+000,0.E+000));
#289 = ORIENTED_EDGE('',*,*,#273,.F.);
#290 = ORIENTED_EDGE('',*,*,#291,.F.);
#291 = EDGE_CURVE('',#274,#274,#292,.T.);
#292 = CIRCLE('',#293,0.6);
#293 = AXIS2_PLACEMENT_3D('',#294,#295,#296);
#294 = CARTESIAN_POINT('',(0.E+000,-0.3,4.75));
#295 = DIRECTION('',(0.E+000,1.,-2.22044604925E-016));
#296 = DIRECTION('',(-1.,0.E+000,0.E+000));
#297 = CYLINDRICAL_SURFACE('',#298,0.6);
#298 = AXIS2_PLACEMENT_3D('',#299,#300,#301);
#299 = CARTESIAN_POINT('',(0.E+000,-0.3,4.75));
#300 = DIRECTION('',(0.E+000,-1.,6.62044604925E-016));
#301 = DIRECTION('',(-1.,0.E+000,0.E+000));
#302 = ADVANCED_FACE('',(#303,#313),#316,.F.);
#303 = FACE_BOUND('',#304,.F.);
#304 = EDGE_LOOP('',(#305,#306,#307,#308,#309,#310,#311,#312));
#305 = ORIENTED_EDGE('',*,*,#47,.T.);
#306 = ORIENTED_EDGE('',*,*,#78,.T.);
#307 = ORIENTED_EDGE('',*,*,#110,.T.);
#308 = ORIENTED_EDGE('',*,*,#142,.T.);
#309 = ORIENTED_EDGE('',*,*,#173,.T.);
#310 = ORIENTED_EDGE('',*,*,#204,.T.);
#311 = ORIENTED_EDGE('',*,*,#236,.T.);
#312 = ORIENTED_EDGE('',*,*,#259,.F.);
#313 = FACE_BOUND('',#314,.F.);
#314 = EDGE_LOOP('',(#315));
#315 = ORIENTED_EDGE('',*,*,#291,.F.);
#316 = PLANE('',#317);
#317 = AXIS2_PLACEMENT_3D('',#318,#319,#320);
#318 = CARTESIAN_POINT('',(5.E-017,-0.3,1.557462350406));
#319 = DIRECTION('',(0.E+000,1.,-4.42044604925E-016));
#320 = DIRECTION('',(0.E+000,4.42044604925E-016,1.));
#321 = ADVANCED_FACE('',(#322,#332),#335,.T.);
#322 = FACE_BOUND('',#323,.T.);
#323 = EDGE_LOOP('',(#324,#325,#326,#327,#328,#329,#330,#331));
#324 = ORIENTED_EDGE('',*,*,#31,.T.);
#325 = ORIENTED_EDGE('',*,*,#62,.T.);
#326 = ORIENTED_EDGE('',*,*,#93,.T.);
#327 = ORIENTED_EDGE('',*,*,#126,.T.);
#328 = ORIENTED_EDGE('',*,*,#157,.T.);
#329 = ORIENTED_EDGE('',*,*,#188,.T.);
#330 = ORIENTED_EDGE('',*,*,#219,.T.);
#331 = ORIENTED_EDGE('',*,*,#252,.F.);
#332 = FACE_BOUND('',#333,.T.);
#333 = EDGE_LOOP('',(#334));
#334 = ORIENTED_EDGE('',*,*,#283,.F.);
#335 = PLANE('',#336);
#336 = AXIS2_PLACEMENT_3D('',#337,#338,#339);
#337 = CARTESIAN_POINT('',(5.E-017,0.3,1.557462350406));
#338 = DIRECTION('',(0.E+000,1.,-4.42044604925E-016));
#339 = DIRECTION('',(0.E+000,4.42044604925E-016,1.));
#340 = ( GEOMETRIC_REPRESENTATION_CONTEXT(3) 
GLOBAL_UNCERTAINTY_ASSIGNED_CONTEXT((#344)) GLOBAL_UNIT_ASSIGNED_CONTEXT
((#341,#342,#343)) REPRESENTATION_CONTEXT('Context #1',
  '3D Context with UNIT and UNCERTAINTY') );
#341 = ( LENGTH_UNIT() NAMED_UNIT(*) SI_UNIT(.MILLI.,.METRE.) );
#342 = ( NAMED_UNIT(*) PLANE_ANGLE_UNIT() SI_UNIT($,.RADIAN.) );
#343 = ( NAMED_UNIT(*) SI_UNIT($,.STERADIAN.) SOLID_ANGLE_UNIT() );
#344 = UNCERTAINTY_MEASURE_WITH_UNIT(LENGTH_MEASURE(1.E-007),#341,
  'distance_accuracy_value','confusion accuracy');
#345 = PRODUCT_RELATED_PRODUCT_CATEGORY('part',$,(#7));
#346 = MECHANICAL_DESIGN_GEOMETRIC_PRESENTATION_REPRESENTATION('',(#347)
  ,#340);
#347 = STYLED_ITEM('color',(#348),#15);
#348 = PRESENTATION_STYLE_ASSIGNMENT((#349,#355));
#349 = SURFACE_STYLE_USAGE(.BOTH.,#350);
#350 = SURFACE_SIDE_STYLE('',(#351));
#351 = SURFACE_STYLE_FILL_AREA(#352);
#352 = FILL_AREA_STYLE('',(#353));
#353 = FILL_AREA_STYLE_COLOUR('',#354);
#354 = COLOUR_RGB('',0.824000000954,0.819999992847,0.78100001812);
#355 = CURVE_STYLE('',#356,POSITIVE_LENGTH_MEASURE(0.1),#354);
#356 = DRAUGHTING_PRE_DEFINED_CURVE_FONT('continuous');
ENDSEC;
END-ISO-10303-21;
