ISO-10303-21;
HEADER;
/* C_Disc_D8.0mm_W2.5mm_P5.00mm.step 3D STEP model for use in ECAD systems
 * Copyright (C) 2017, kicad StepUp
 * 
 * This program is free software: you can redistribute it and/or modify
 * it under the terms of the GNU General Public License as published by
 * the Free Software Foundation, either version 3 of the License, or
 * any later version.
 * 
 * This program is distributed in the hope that it will be useful,
 * but WITHOUT ANY WARRANTY; without even the implied warranty of
 * MERCHANTABILITY or FITNESS FOR A PARTICULAR PURPOSE.  See the
 * GNU General Public License for more details.
 * 
 * You should have received a copy of the GNU General Public License
 * along with this program.  If not, see http://www.gnu.org/licenses/.
 * 
 * As a special exception, if you create a design which uses this symbol,
 * and embed this symbol or unaltered portions of this symbol into the design,
 * this symbol does not by itself cause the resulting design to be covered by
 * the GNU General Public License.
 * This exception does not however invalidate any other reasons why the design
 * itself might be covered by the GNU General Public License. 
 * If you modify this symbol, you may extend this exception to your version of the symbol,
 * but you are not obligated to do so.
 * If you do not wish to do so, delete this exception statement from your version
 * Risk disclaimer
 * *USE 3D CAD DATA AT YOUR OWN RISK*
 * *DO NOT RELY UPON ANY INFORMATION FOUND HERE WITHOUT INDEPENDENT VERIFICATION.*
 * 
 */

FILE_DESCRIPTION(
/* description */ ('model of C_Disc_D8.0mm_W2.5mm_P5.00mm'),
/* implementation_level */ '2;1');

FILE_NAME(
/* name */ 'C_Disc_D8.0mm_W2.5mm_P5.00mm.step',
/* time_stamp */ '2017-07-29T15:42:20',
/* author */ ('kicad StepUp','ksu'),
/* organization */ ('FreeCAD'),
/* preprocessor_version */ 'OCC',
/* originating_system */ 'kicad StepUp',
/* authorisation */ '');

FILE_SCHEMA(('AUTOMOTIVE_DESIGN_CC2 { 1 2 10303 214 -1 1 5 4 }'));
ENDSEC;

DATA;
#1 = APPLICATION_PROTOCOL_DEFINITION('committee draft',
'automotive_design',1997,#2);
#2 = APPLICATION_CONTEXT(
'core data for automotive mechanical design processes');
#3 = SHAPE_DEFINITION_REPRESENTATION(#4,#10);
#4 = PRODUCT_DEFINITION_SHAPE('','',#5);
#5 = PRODUCT_DEFINITION('design','',#6,#9);
#6 = PRODUCT_DEFINITION_FORMATION('','',#7);
#7 = PRODUCT('C_Disc_D80mm_W25mm_P500mm','C_Disc_D80mm_W25mm_P500mm','',
(#8));
#8 = MECHANICAL_CONTEXT('',#2,'mechanical');
#9 = PRODUCT_DEFINITION_CONTEXT('part definition',#2,'design');
#10 = ADVANCED_BREP_SHAPE_REPRESENTATION('',(#11,#15),#383);
#11 = AXIS2_PLACEMENT_3D('',#12,#13,#14);
#12 = CARTESIAN_POINT('',(0.,0.,0.));
#13 = DIRECTION('',(0.,0.,1.));
#14 = DIRECTION('',(1.,0.,-0.));
#15 = MANIFOLD_SOLID_BREP('',#16);
#16 = CLOSED_SHELL('',(#17,#34,#166,#267,#347,#374));
#17 = ADVANCED_FACE('',(#18),#29,.T.);
#18 = FACE_BOUND('',#19,.F.);
#19 = EDGE_LOOP('',(#20));
#20 = ORIENTED_EDGE('',*,*,#21,.T.);
#21 = EDGE_CURVE('',#22,#22,#24,.T.);
#22 = VERTEX_POINT('',#23);
#23 = CARTESIAN_POINT('',(1.942890293094E-16,-0.25,-2.));
#24 = CIRCLE('',#25,0.25);
#25 = AXIS2_PLACEMENT_3D('',#26,#27,#28);
#26 = CARTESIAN_POINT('',(1.665334536938E-16,0.,-2.));
#27 = DIRECTION('',(-0.,0.,1.));
#28 = DIRECTION('',(1.110223024625E-16,-1.,0.));
#29 = PLANE('',#30);
#30 = AXIS2_PLACEMENT_3D('',#31,#32,#33);
#31 = CARTESIAN_POINT('',(1.942890293094E-16,-0.25,-2.));
#32 = DIRECTION('',(0.,0.,-1.));
#33 = DIRECTION('',(-1.110223024625E-16,1.,0.));
#34 = ADVANCED_FACE('',(#35),#161,.T.);
#35 = FACE_BOUND('',#36,.F.);
#36 = EDGE_LOOP('',(#37,#38,#46,#74,#130,#160));
#37 = ORIENTED_EDGE('',*,*,#21,.F.);
#38 = ORIENTED_EDGE('',*,*,#39,.T.);
#39 = EDGE_CURVE('',#22,#40,#42,.T.);
#40 = VERTEX_POINT('',#41);
#41 = CARTESIAN_POINT('',(0.,-0.25,1.492319037919));
#42 = LINE('',#43,#44);
#43 = CARTESIAN_POINT('',(1.942890293094E-16,-0.25,-2.));
#44 = VECTOR('',#45,1.);
#45 = DIRECTION('',(0.,0.,1.));
#46 = ORIENTED_EDGE('',*,*,#47,.T.);
#47 = EDGE_CURVE('',#40,#48,#50,.T.);
#48 = VERTEX_POINT('',#49);
#49 = CARTESIAN_POINT('',(0.25,-4.440892080918E-16,0.792810861169));
#50 = B_SPLINE_CURVE_WITH_KNOTS('',8,(#51,#52,#53,#54,#55,#56,#57,#58,
#59,#60,#61,#62,#63,#64,#65,#66,#67,#68,#69,#70,#71,#72,#73),
.UNSPECIFIED.,.F.,.F.,(9,7,7,9),(0.,0.256830355006,0.503376814634,1.),
.UNSPECIFIED.);
#51 = CARTESIAN_POINT('',(0.,-0.25,1.492319037919));
#52 = CARTESIAN_POINT('',(1.758580567523E-02,-0.249999998337,
1.475459412816));
#53 = CARTESIAN_POINT('',(3.399689306596E-02,-0.248586364161,
1.456719929526));
#54 = CARTESIAN_POINT('',(4.940724630395E-02,-0.246088581701,
1.436712059721));
#55 = CARTESIAN_POINT('',(6.389038559768E-02,-0.242687589378,
1.415796998842));
#56 = CARTESIAN_POINT('',(7.752760447037E-02,-0.238538103764,
1.394256481194));
#57 = CARTESIAN_POINT('',(9.038900674216E-02,-0.233740610404,
1.372254747782));
#58 = CARTESIAN_POINT('',(0.102553008994,-0.228366541076,1.349882032923)
);
#59 = CARTESIAN_POINT('',(0.125183517862,-0.216758547333,1.305302681084)
);
#60 = CARTESIAN_POINT('',(0.13566231971,-0.210586437357,1.283196978757)
);
#61 = CARTESIAN_POINT('',(0.145579118104,-0.203975754261,1.260889588458)
);
#62 = CARTESIAN_POINT('',(0.15496187156,-0.196962991542,1.238436526848)
);
#63 = CARTESIAN_POINT('',(0.163829793373,-0.189576992951,1.215883237349)
);
#64 = CARTESIAN_POINT('',(0.172197389962,-0.181841277234,1.19326650402)
);
#65 = CARTESIAN_POINT('',(0.180075960707,-0.173774716263,1.170615156794)
);
#66 = CARTESIAN_POINT('',(0.202371667386,-0.148502215666,1.102293845115)
);
#67 = CARTESIAN_POINT('',(0.215292891297,-0.130351051609,1.056649699756)
);
#68 = CARTESIAN_POINT('',(0.22631218283,-0.111047809431,1.011168748336)
);
#69 = CARTESIAN_POINT('',(0.235393263404,-9.067338142493E-02,
0.96602413267));
#70 = CARTESIAN_POINT('',(0.242462578224,-6.930810961566E-02,
0.921401561177));
#71 = CARTESIAN_POINT('',(0.247387420735,-4.702648876562E-02,
0.877505451386));
#72 = CARTESIAN_POINT('',(0.25,-2.390628146008E-02,0.83455591101));
#73 = CARTESIAN_POINT('',(0.25,-8.881784197001E-16,0.792810861169));
#74 = ORIENTED_EDGE('',*,*,#75,.T.);
#75 = EDGE_CURVE('',#48,#76,#78,.T.);
#76 = VERTEX_POINT('',#77);
#77 = CARTESIAN_POINT('',(-0.25,-4.440892080918E-16,1.195262490344));
#78 = B_SPLINE_CURVE_WITH_KNOTS('',8,(#79,#80,#81,#82,#83,#84,#85,#86,
#87,#88,#89,#90,#91,#92,#93,#94,#95,#96,#97,#98,#99,#100,#101,#102,
#103,#104,#105,#106,#107,#108,#109,#110,#111,#112,#113,#114,#115,
#116,#117,#118,#119,#120,#121,#122,#123,#124,#125,#126,#127,#128,
#129),.UNSPECIFIED.,.F.,.F.,(9,7,7,7,7,7,7,9),(0.,0.346370951743,
0.498211525168,0.574228226584,0.650118675574,0.73035773391,
0.865591287275,1.),.UNSPECIFIED.);
#79 = CARTESIAN_POINT('',(0.25,0.,0.792810861169));
#80 = CARTESIAN_POINT('',(0.25,2.640171722116E-02,0.838913430618));
#81 = CARTESIAN_POINT('',(0.246813142916,5.192297384727E-02,
0.886622114143));
#82 = CARTESIAN_POINT('',(0.240813715955,7.659137249659E-02,
0.935791362734));
#83 = CARTESIAN_POINT('',(0.232103167735,0.100356631138,0.986339042589)
);
#84 = CARTESIAN_POINT('',(0.220752712221,0.12314848044,1.038164137248));
#85 = CARTESIAN_POINT('',(0.206638135238,0.144828273062,1.09119480508));
#86 = CARTESIAN_POINT('',(0.189654176913,0.165250990415,1.145313206116)
);
#87 = CARTESIAN_POINT('',(0.160135723592,0.19236889319,1.224777498309));
#88 = CARTESIAN_POINT('',(0.150481713316,0.200311130388,1.249151771797)
);
#89 = CARTESIAN_POINT('',(0.14010686497,0.207920076912,1.273720143554));
#90 = CARTESIAN_POINT('',(0.128930733816,0.21515939152,1.298486867368));
#91 = CARTESIAN_POINT('',(0.116873766468,0.221977828652,1.323425143139)
);
#92 = CARTESIAN_POINT('',(0.103802559359,0.228284285456,1.348471813757)
);
#93 = CARTESIAN_POINT('',(8.958802944989E-02,0.23397592514,
1.373529713559));
#94 = CARTESIAN_POINT('',(6.599839872271E-02,0.241271777328,
1.410955771388));
#95 = CARTESIAN_POINT('',(5.784377192155E-02,0.243470485083,
1.423268163134));
#96 = CARTESIAN_POINT('',(4.936683759697E-02,0.245413475044,
1.435394892275));
#97 = CARTESIAN_POINT('',(4.053643634015E-02,0.247075327519,
1.447307005372));
#98 = CARTESIAN_POINT('',(3.132151167176E-02,0.248421520036,
1.458954867972));
#99 = CARTESIAN_POINT('',(2.168482699477E-02,0.249404327526,
1.470264292839));
#100 = CARTESIAN_POINT('',(1.157668254738E-02,0.249958722509,
1.481132668191));
#101 = CARTESIAN_POINT('',(-9.701733009245E-03,0.250037762355,
1.501700409494));
#102 = CARTESIAN_POINT('',(-2.084602894852E-02,0.249559066479,
1.511365141288));
#103 = CARTESIAN_POINT('',(-3.264252808984E-02,0.248486274204,
1.520381267505));
#104 = CARTESIAN_POINT('',(-4.513903955623E-02,0.246676650398,
1.52846310515));
#105 = CARTESIAN_POINT('',(-5.829315863594E-02,0.243961411724,
1.535173461745));
#106 = CARTESIAN_POINT('',(-7.197251645255E-02,0.240186500125,
1.540019795022));
#107 = CARTESIAN_POINT('',(-8.595502963499E-02,0.235253356299,
1.542550372626));
#108 = CARTESIAN_POINT('',(-0.114704003386,0.222716856228,1.542344764282
));
#109 = CARTESIAN_POINT('',(-0.127484007243,0.215889092718,1.539417334629
));
#110 = CARTESIAN_POINT('',(-0.138625940933,0.208898333698,1.534527382144
));
#111 = CARTESIAN_POINT('',(-0.148439995192,0.201898902878,1.528335329));
#112 = CARTESIAN_POINT('',(-0.15718977212,0.194977516637,1.521302780257)
);
#113 = CARTESIAN_POINT('',(-0.165092285176,0.188153284023,1.513692523863
));
#114 = CARTESIAN_POINT('',(-0.172317959186,0.181377706756,1.505568530653
));
#115 = CARTESIAN_POINT('',(-0.190236637566,0.163001556227,1.482010802453
));
#116 = CARTESIAN_POINT('',(-0.199706175493,0.151591484811,1.465888566767
));
#117 = CARTESIAN_POINT('',(-0.207893687716,0.140284859653,1.448890916725
));
#118 = CARTESIAN_POINT('',(-0.214985302767,0.129079833963,1.431210133969
));
#119 = CARTESIAN_POINT('',(-0.221157865272,0.117969861475,1.413014388492
));
#120 = CARTESIAN_POINT('',(-0.226508800431,0.106945730191,1.394385881489
));
#121 = CARTESIAN_POINT('',(-0.231127222546,9.599293579507E-02,
1.375386284556));
#122 = CARTESIAN_POINT('',(-0.238995934125,7.425459741224E-02,
1.336804459454));
#123 = CARTESIAN_POINT('',(-0.242249065375,6.348398465189E-02,
1.3172543685));
#124 = CARTESIAN_POINT('',(-0.244891680683,5.277201519791E-02,
1.29743440994));
#125 = CARTESIAN_POINT('',(-0.246963710452,4.211481933302E-02,
1.277379828231));
#126 = CARTESIAN_POINT('',(-0.248493156199,3.151014908708E-02,
1.257117142244));
#127 = CARTESIAN_POINT('',(-0.249500398665,2.095661583448E-02,
1.2366669378));
#128 = CARTESIAN_POINT('',(-0.25,1.045333816096E-02,1.216045100711));
#129 = CARTESIAN_POINT('',(-0.25,0.,1.195262490344));
#130 = ORIENTED_EDGE('',*,*,#131,.T.);
#131 = EDGE_CURVE('',#76,#40,#132,.T.);
#132 = B_SPLINE_CURVE_WITH_KNOTS('',6,(#133,#134,#135,#136,#137,#138,
#139,#140,#141,#142,#143,#144,#145,#146,#147,#148,#149,#150,#151,
#152,#153,#154,#155,#156,#157,#158,#159),.UNSPECIFIED.,.F.,.F.,(7,5,
5,5,5,7),(0.,0.229626710677,0.398705371547,0.52552445418,
0.736929536443,1.),.UNSPECIFIED.);
#133 = CARTESIAN_POINT('',(-0.25,-8.881784197001E-16,1.195262490344));
#134 = CARTESIAN_POINT('',(-0.25,-1.043382111526E-02,1.216006298258));
#135 = CARTESIAN_POINT('',(-0.249477362045,-2.103699300771E-02,
1.236814752175));
#136 = CARTESIAN_POINT('',(-0.248400865651,-3.182189750129E-02,
1.257687659225));
#137 = CARTESIAN_POINT('',(-0.246723593383,-4.280566155989E-02,
1.278620824758));
#138 = CARTESIAN_POINT('',(-0.244385437258,-5.400936835524E-02,
1.299605922912));
#139 = CARTESIAN_POINT('',(-0.238980445408,-7.392516362984E-02,
1.336125549974));
#140 = CARTESIAN_POINT('',(-0.236287488282,-8.243900817441E-02,
1.3514968056));
#141 = CARTESIAN_POINT('',(-0.233168849729,-9.102513862396E-02,
1.36673645446));
#142 = CARTESIAN_POINT('',(-0.229585223223,-9.968789156625E-02,
1.381814118383));
#143 = CARTESIAN_POINT('',(-0.225482810489,-0.108431823801,
1.396685055031));
#144 = CARTESIAN_POINT('',(-0.217275924993,-0.123884655518,
1.422244856373));
#145 = CARTESIAN_POINT('',(-0.213427112535,-0.130553748844,
1.433043892459));
#146 = CARTESIAN_POINT('',(-0.209218315022,-0.137273116913,
1.443667293697));
#147 = CARTESIAN_POINT('',(-0.204608661646,-0.14404395786,1.454075763247
));
#148 = CARTESIAN_POINT('',(-0.199544979897,-0.150864543356,
1.464210679887));
#149 = CARTESIAN_POINT('',(-0.184654729785,-0.169175173199,
1.490302876409));
#150 = CARTESIAN_POINT('',(-0.173955795175,-0.180677936913,
1.505535792609));
#151 = CARTESIAN_POINT('',(-0.161395932971,-0.19241471251,1.519599896693
));
#152 = CARTESIAN_POINT('',(-0.146529694557,-0.204170171395,1.53157990477
));
#153 = CARTESIAN_POINT('',(-0.128978748957,-0.215318492397,
1.539593193012));
#154 = CARTESIAN_POINT('',(-8.391408365944E-02,-0.23712637726,
1.544784117203));
#155 = CARTESIAN_POINT('',(-6.299832859154E-02,-0.243192716283,
1.538037994574));
#156 = CARTESIAN_POINT('',(-4.435915052651E-02,-0.24718199584,
1.52881344176));
#157 = CARTESIAN_POINT('',(-2.849980025549E-02,-0.249012820352,
1.517540662626));
#158 = CARTESIAN_POINT('',(-1.406928390401E-02,-0.24999999867,
1.505807345305));
#159 = CARTESIAN_POINT('',(0.,-0.25,1.492319037919));
#160 = ORIENTED_EDGE('',*,*,#39,.F.);
#161 = CYLINDRICAL_SURFACE('',#162,0.25);
#162 = AXIS2_PLACEMENT_3D('',#163,#164,#165);
#163 = CARTESIAN_POINT('',(1.665334536938E-16,0.,-2.));
#164 = DIRECTION('',(-0.,0.,-1.));
#165 = DIRECTION('',(1.110223024625E-16,-1.,0.));
#166 = ADVANCED_FACE('',(#167),#262,.T.);
#167 = FACE_BOUND('',#168,.T.);
#168 = EDGE_LOOP('',(#169,#180,#187,#188,#189,#198,#254,#261));
#169 = ORIENTED_EDGE('',*,*,#170,.F.);
#170 = EDGE_CURVE('',#171,#173,#175,.T.);
#171 = VERTEX_POINT('',#172);
#172 = CARTESIAN_POINT('',(-1.5,-4.440892080918E-16,4.1));
#173 = VERTEX_POINT('',#174);
#174 = CARTESIAN_POINT('',(2.5,-1.25,4.1));
#175 = CIRCLE('',#176,7.025);
#176 = AXIS2_PLACEMENT_3D('',#177,#178,#179);
#177 = CARTESIAN_POINT('',(2.5,5.775,4.1));
#178 = DIRECTION('',(0.,0.,1.));
#179 = DIRECTION('',(-0.569395017794,-0.82206405694,0.));
#180 = ORIENTED_EDGE('',*,*,#181,.T.);
#181 = EDGE_CURVE('',#171,#76,#182,.T.);
#182 = CIRCLE('',#183,4.);
#183 = AXIS2_PLACEMENT_3D('',#184,#185,#186);
#184 = CARTESIAN_POINT('',(2.5,-4.440892080918E-16,4.1));
#185 = DIRECTION('',(0.,-1.,0.));
#186 = DIRECTION('',(-1.,0.,0.));
#187 = ORIENTED_EDGE('',*,*,#131,.T.);
#188 = ORIENTED_EDGE('',*,*,#47,.T.);
#189 = ORIENTED_EDGE('',*,*,#190,.T.);
#190 = EDGE_CURVE('',#48,#191,#193,.T.);
#191 = VERTEX_POINT('',#192);
#192 = CARTESIAN_POINT('',(4.75,-4.440892080918E-16,0.792810861169));
#193 = CIRCLE('',#194,4.);
#194 = AXIS2_PLACEMENT_3D('',#195,#196,#197);
#195 = CARTESIAN_POINT('',(2.5,-4.440892080918E-16,4.1));
#196 = DIRECTION('',(0.,-1.,0.));
#197 = DIRECTION('',(-1.,0.,0.));
#198 = ORIENTED_EDGE('',*,*,#199,.T.);
#199 = EDGE_CURVE('',#191,#200,#202,.T.);
#200 = VERTEX_POINT('',#201);
#201 = CARTESIAN_POINT('',(5.25,-4.440892080918E-16,1.195262490344));
#202 = B_SPLINE_CURVE_WITH_KNOTS('',8,(#203,#204,#205,#206,#207,#208,
#209,#210,#211,#212,#213,#214,#215,#216,#217,#218,#219,#220,#221,
#222,#223,#224,#225,#226,#227,#228,#229,#230,#231,#232,#233,#234,
#235,#236,#237,#238,#239,#240,#241,#242,#243,#244,#245,#246,#247,
#248,#249,#250,#251,#252,#253),.UNSPECIFIED.,.F.,.F.,(9,7,7,7,7,7,7,
9),(0.,0.346370951681,0.498211525081,0.574228226501,0.650118675533,
0.730357733883,0.86559128726,1.),.UNSPECIFIED.);
#203 = CARTESIAN_POINT('',(4.75,-8.881784197001E-16,0.792810861169));
#204 = CARTESIAN_POINT('',(4.75,-2.640171722159E-02,0.838913430618));
#205 = CARTESIAN_POINT('',(4.753186857084,-5.19229738481E-02,
0.886622114144));
#206 = CARTESIAN_POINT('',(4.759186284045,-7.659137249768E-02,
0.935791362736));
#207 = CARTESIAN_POINT('',(4.767896832265,-0.10035663114,0.986339042592)
);
#208 = CARTESIAN_POINT('',(4.77924728778,-0.123148480442,1.038164137252)
);
#209 = CARTESIAN_POINT('',(4.793361864764,-0.144828273064,1.091194805085
));
#210 = CARTESIAN_POINT('',(4.810345823089,-0.165250990417,1.145313206122
));
#211 = CARTESIAN_POINT('',(4.839864276411,-0.192368893193,1.224777498317
));
#212 = CARTESIAN_POINT('',(4.849518286688,-0.200311130391,1.249151771806
));
#213 = CARTESIAN_POINT('',(4.859893135034,-0.207920076915,1.273720143564
));
#214 = CARTESIAN_POINT('',(4.871069266189,-0.215159391524,1.298486867379
));
#215 = CARTESIAN_POINT('',(4.883126233538,-0.221977828655,1.323425143151
));
#216 = CARTESIAN_POINT('',(4.896197440648,-0.228284285459,1.34847181377)
);
#217 = CARTESIAN_POINT('',(4.910411970558,-0.233975925143,1.373529713573
));
#218 = CARTESIAN_POINT('',(4.934001601289,-0.241271777331,1.410955771406
));
#219 = CARTESIAN_POINT('',(4.942156228091,-0.243470485086,1.423268163153
));
#220 = CARTESIAN_POINT('',(4.950633162416,-0.245413475046,1.435394892293
));
#221 = CARTESIAN_POINT('',(4.959463563673,-0.247075327521,1.447307005389
));
#222 = CARTESIAN_POINT('',(4.968678488342,-0.248421520038,1.458954867988
));
#223 = CARTESIAN_POINT('',(4.978315173019,-0.249404327528,1.470264292854
));
#224 = CARTESIAN_POINT('',(4.988423317466,-0.24995872251,1.481132668205)
);
#225 = CARTESIAN_POINT('',(5.009701733025,-0.250037762355,1.501700409508
));
#226 = CARTESIAN_POINT('',(5.020846028966,-0.249559066478,1.511365141302
));
#227 = CARTESIAN_POINT('',(5.032642528107,-0.248486274202,1.520381267516
));
#228 = CARTESIAN_POINT('',(5.045139039572,-0.246676650395,1.528463105159
));
#229 = CARTESIAN_POINT('',(5.05829315865,-0.243961411721,1.535173461751)
);
#230 = CARTESIAN_POINT('',(5.071972516466,-0.240186500121,1.540019795026
));
#231 = CARTESIAN_POINT('',(5.08595502965,-0.235253356294,1.542550372629)
);
#232 = CARTESIAN_POINT('',(5.114704003403,-0.22271685622,1.542344764278)
);
#233 = CARTESIAN_POINT('',(5.127484007259,-0.215889092709,1.539417334624
));
#234 = CARTESIAN_POINT('',(5.138625940947,-0.208898333689,1.534527382137
));
#235 = CARTESIAN_POINT('',(5.148439995205,-0.201898902869,1.528335328991
));
#236 = CARTESIAN_POINT('',(5.157189772131,-0.194977516627,1.521302780247
));
#237 = CARTESIAN_POINT('',(5.165092285187,-0.188153284013,1.513692523852
));
#238 = CARTESIAN_POINT('',(5.172317959197,-0.181377706746,1.505568530642
));
#239 = CARTESIAN_POINT('',(5.190236637573,-0.163001556218,1.482010802441
));
#240 = CARTESIAN_POINT('',(5.199706175499,-0.151591484803,1.465888566755
));
#241 = CARTESIAN_POINT('',(5.20789368772,-0.140284859646,1.448890916714)
);
#242 = CARTESIAN_POINT('',(5.214985302771,-0.129079833957,1.431210133958
));
#243 = CARTESIAN_POINT('',(5.221157865275,-0.117969861469,1.413014388483
));
#244 = CARTESIAN_POINT('',(5.226508800433,-0.106945730186,1.394385881481
));
#245 = CARTESIAN_POINT('',(5.231127222548,-9.599293579109E-02,
1.375386284549));
#246 = CARTESIAN_POINT('',(5.238995934125,-7.425459740943E-02,
1.336804459449));
#247 = CARTESIAN_POINT('',(5.242249065375,-6.348398464948E-02,
1.317254368495));
#248 = CARTESIAN_POINT('',(5.244891680684,-5.277201519592E-02,
1.297434409936));
#249 = CARTESIAN_POINT('',(5.246963710453,-4.211481933143E-02,
1.277379828228));
#250 = CARTESIAN_POINT('',(5.248493156199,-3.15101490859E-02,
1.257117142242));
#251 = CARTESIAN_POINT('',(5.249500398665,-2.09566158337E-02,
1.236666937798));
#252 = CARTESIAN_POINT('',(5.25,-1.045333816057E-02,1.21604510071));
#253 = CARTESIAN_POINT('',(5.25,-8.881784197001E-16,1.195262490344));
#254 = ORIENTED_EDGE('',*,*,#255,.T.);
#255 = EDGE_CURVE('',#200,#171,#256,.T.);
#256 = CIRCLE('',#257,4.);
#257 = AXIS2_PLACEMENT_3D('',#258,#259,#260);
#258 = CARTESIAN_POINT('',(2.5,-4.440892080918E-16,4.1));
#259 = DIRECTION('',(0.,-1.,0.));
#260 = DIRECTION('',(-1.,0.,0.));
#261 = ORIENTED_EDGE('',*,*,#170,.T.);
#262 = SPHERICAL_SURFACE('',#263,7.025);
#263 = AXIS2_PLACEMENT_3D('',#264,#265,#266);
#264 = CARTESIAN_POINT('',(2.5,5.775,4.1));
#265 = DIRECTION('',(0.,-1.,0.));
#266 = DIRECTION('',(-1.,0.,0.));
#267 = ADVANCED_FACE('',(#268),#342,.T.);
#268 = FACE_BOUND('',#269,.T.);
#269 = EDGE_LOOP('',(#270,#279,#280,#281,#313,#339,#340,#341));
#270 = ORIENTED_EDGE('',*,*,#271,.F.);
#271 = EDGE_CURVE('',#272,#171,#274,.T.);
#272 = VERTEX_POINT('',#273);
#273 = CARTESIAN_POINT('',(2.5,1.25,4.1));
#274 = CIRCLE('',#275,7.025);
#275 = AXIS2_PLACEMENT_3D('',#276,#277,#278);
#276 = CARTESIAN_POINT('',(2.5,-5.775,4.1));
#277 = DIRECTION('',(0.,0.,1.));
#278 = DIRECTION('',(-8.534098694628E-16,1.,0.));
#279 = ORIENTED_EDGE('',*,*,#271,.T.);
#280 = ORIENTED_EDGE('',*,*,#255,.F.);
#281 = ORIENTED_EDGE('',*,*,#282,.T.);
#282 = EDGE_CURVE('',#200,#283,#285,.T.);
#283 = VERTEX_POINT('',#284);
#284 = CARTESIAN_POINT('',(5.,0.25,1.492319037919));
#285 = B_SPLINE_CURVE_WITH_KNOTS('',6,(#286,#287,#288,#289,#290,#291,
#292,#293,#294,#295,#296,#297,#298,#299,#300,#301,#302,#303,#304,
#305,#306,#307,#308,#309,#310,#311,#312),.UNSPECIFIED.,.F.,.F.,(7,5,
5,5,5,7),(0.,0.229626710626,0.398705371424,0.525524454099,
0.736929536379,1.),.UNSPECIFIED.);
#286 = CARTESIAN_POINT('',(5.25,0.,1.195262490344));
#287 = CARTESIAN_POINT('',(5.25,1.043382111536E-02,1.216006298259));
#288 = CARTESIAN_POINT('',(5.249477362045,2.103699300791E-02,
1.236814752176));
#289 = CARTESIAN_POINT('',(5.248400865651,3.18218975016E-02,
1.257687659226));
#290 = CARTESIAN_POINT('',(5.246723593383,4.280566156031E-02,
1.278620824758));
#291 = CARTESIAN_POINT('',(5.244385437257,5.400936835578E-02,
1.299605922913));
#292 = CARTESIAN_POINT('',(5.238980445408,7.392516362883E-02,
1.336125549972));
#293 = CARTESIAN_POINT('',(5.236287488283,8.243900817246E-02,
1.351496805596));
#294 = CARTESIAN_POINT('',(5.23316884973,9.102513862094E-02,
1.366736454455));
#295 = CARTESIAN_POINT('',(5.229585223225,9.96878915619E-02,
1.381814118376));
#296 = CARTESIAN_POINT('',(5.225482810491,0.108431823795,1.396685055022)
);
#297 = CARTESIAN_POINT('',(5.217275924993,0.123884655519,1.422244856375)
);
#298 = CARTESIAN_POINT('',(5.213427112534,0.130553748846,1.433043892462)
);
#299 = CARTESIAN_POINT('',(5.20921831502,0.137273116915,1.4436672937));
#300 = CARTESIAN_POINT('',(5.204608661645,0.144043957861,1.454075763249)
);
#301 = CARTESIAN_POINT('',(5.199544979895,0.150864543358,1.464210679889)
);
#302 = CARTESIAN_POINT('',(5.184654729786,0.169175173198,1.490302876407)
);
#303 = CARTESIAN_POINT('',(5.173955795177,0.18067793691,1.505535792606)
);
#304 = CARTESIAN_POINT('',(5.161395932973,0.192414712508,1.519599896691)
);
#305 = CARTESIAN_POINT('',(5.146529694559,0.204170171394,1.531579904769)
);
#306 = CARTESIAN_POINT('',(5.128978748958,0.215318492396,1.539593193011)
);
#307 = CARTESIAN_POINT('',(5.083914083662,0.237126377259,1.544784117204)
);
#308 = CARTESIAN_POINT('',(5.062998328593,0.243192716283,1.538037994575)
);
#309 = CARTESIAN_POINT('',(5.044359150528,0.247181995839,1.52881344176)
);
#310 = CARTESIAN_POINT('',(5.028499800256,0.249012820352,1.517540662626)
);
#311 = CARTESIAN_POINT('',(5.014069283904,0.24999999867,1.505807345306)
);
#312 = CARTESIAN_POINT('',(5.,0.25,1.492319037919));
#313 = ORIENTED_EDGE('',*,*,#314,.T.);
#314 = EDGE_CURVE('',#283,#191,#315,.T.);
#315 = B_SPLINE_CURVE_WITH_KNOTS('',8,(#316,#317,#318,#319,#320,#321,
#322,#323,#324,#325,#326,#327,#328,#329,#330,#331,#332,#333,#334,
#335,#336,#337,#338),.UNSPECIFIED.,.F.,.F.,(9,7,7,9),(0.,
0.256830355009,0.503376814625,1.),.UNSPECIFIED.);
#316 = CARTESIAN_POINT('',(5.,0.25,1.492319037919));
#317 = CARTESIAN_POINT('',(4.982414194325,0.249999998337,1.475459412815)
);
#318 = CARTESIAN_POINT('',(4.966003106934,0.248586364161,1.456719929526)
);
#319 = CARTESIAN_POINT('',(4.950592753696,0.246088581701,1.43671205972)
);
#320 = CARTESIAN_POINT('',(4.936109614402,0.242687589378,1.415796998841)
);
#321 = CARTESIAN_POINT('',(4.922472395529,0.238538103764,1.394256481193)
);
#322 = CARTESIAN_POINT('',(4.909610993257,0.233740610404,1.37225474778)
);
#323 = CARTESIAN_POINT('',(4.897446991005,0.228366541075,1.349882032921)
);
#324 = CARTESIAN_POINT('',(4.874816482137,0.216758547333,1.305302681083)
);
#325 = CARTESIAN_POINT('',(4.86433768029,0.210586437357,1.283196978756)
);
#326 = CARTESIAN_POINT('',(4.854420881896,0.203975754262,1.260889588459)
);
#327 = CARTESIAN_POINT('',(4.845038128441,0.196962991543,1.23843652685)
);
#328 = CARTESIAN_POINT('',(4.836170206628,0.189576992952,1.215883237352)
);
#329 = CARTESIAN_POINT('',(4.82780261004,0.181841277236,1.193266504024)
);
#330 = CARTESIAN_POINT('',(4.819924039295,0.173774716265,1.170615156799)
);
#331 = CARTESIAN_POINT('',(4.797628332615,0.148502215668,1.102293845121)
);
#332 = CARTESIAN_POINT('',(4.784707108704,0.130351051611,1.056649699761)
);
#333 = CARTESIAN_POINT('',(4.77368781717,0.111047809432,1.01116874834));
#334 = CARTESIAN_POINT('',(4.764606736597,9.067338142642E-02,
0.966024132673));
#335 = CARTESIAN_POINT('',(4.757537421777,6.930810961687E-02,
0.92140156118));
#336 = CARTESIAN_POINT('',(4.752612579265,4.702648876642E-02,
0.877505451387));
#337 = CARTESIAN_POINT('',(4.75,2.390628146051E-02,0.83455591101));
#338 = CARTESIAN_POINT('',(4.75,0.,0.792810861169));
#339 = ORIENTED_EDGE('',*,*,#190,.F.);
#340 = ORIENTED_EDGE('',*,*,#75,.T.);
#341 = ORIENTED_EDGE('',*,*,#181,.F.);
#342 = SPHERICAL_SURFACE('',#343,7.025);
#343 = AXIS2_PLACEMENT_3D('',#344,#345,#346);
#344 = CARTESIAN_POINT('',(2.5,-5.775,4.1));
#345 = DIRECTION('',(0.,-1.,0.));
#346 = DIRECTION('',(-1.,0.,0.));
#347 = ADVANCED_FACE('',(#348),#369,.T.);
#348 = FACE_BOUND('',#349,.F.);
#349 = EDGE_LOOP('',(#350,#359,#365,#366,#367,#368));
#350 = ORIENTED_EDGE('',*,*,#351,.F.);
#351 = EDGE_CURVE('',#352,#352,#354,.T.);
#352 = VERTEX_POINT('',#353);
#353 = CARTESIAN_POINT('',(5.,0.25,-2.));
#354 = CIRCLE('',#355,0.25);
#355 = AXIS2_PLACEMENT_3D('',#356,#357,#358);
#356 = CARTESIAN_POINT('',(5.,0.,-2.));
#357 = DIRECTION('',(0.,-0.,1.));
#358 = DIRECTION('',(1.144237745222E-17,1.,0.));
#359 = ORIENTED_EDGE('',*,*,#360,.T.);
#360 = EDGE_CURVE('',#352,#283,#361,.T.);
#361 = LINE('',#362,#363);
#362 = CARTESIAN_POINT('',(5.,0.25,-2.));
#363 = VECTOR('',#364,1.);
#364 = DIRECTION('',(0.,0.,1.));
#365 = ORIENTED_EDGE('',*,*,#314,.T.);
#366 = ORIENTED_EDGE('',*,*,#199,.T.);
#367 = ORIENTED_EDGE('',*,*,#282,.T.);
#368 = ORIENTED_EDGE('',*,*,#360,.F.);
#369 = CYLINDRICAL_SURFACE('',#370,0.25);
#370 = AXIS2_PLACEMENT_3D('',#371,#372,#373);
#371 = CARTESIAN_POINT('',(5.,0.,-2.));
#372 = DIRECTION('',(0.,-0.,-1.));
#373 = DIRECTION('',(1.144237745222E-17,1.,0.));
#374 = ADVANCED_FACE('',(#375),#378,.T.);
#375 = FACE_BOUND('',#376,.F.);
#376 = EDGE_LOOP('',(#377));
#377 = ORIENTED_EDGE('',*,*,#351,.T.);
#378 = PLANE('',#379);
#379 = AXIS2_PLACEMENT_3D('',#380,#381,#382);
#380 = CARTESIAN_POINT('',(5.,0.25,-2.));
#381 = DIRECTION('',(-0.,0.,-1.));
#382 = DIRECTION('',(-1.144237745222E-17,-1.,0.));
#383 = ( GEOMETRIC_REPRESENTATION_CONTEXT(3)
GLOBAL_UNCERTAINTY_ASSIGNED_CONTEXT((#387)) GLOBAL_UNIT_ASSIGNED_CONTEXT
((#384,#385,#386)) REPRESENTATION_CONTEXT('Context #1',
'3D Context with UNIT and UNCERTAINTY') );
#384 = ( LENGTH_UNIT() NAMED_UNIT(*) SI_UNIT(.MILLI.,.METRE.) );
#385 = ( NAMED_UNIT(*) PLANE_ANGLE_UNIT() SI_UNIT($,.RADIAN.) );
#386 = ( NAMED_UNIT(*) SI_UNIT($,.STERADIAN.) SOLID_ANGLE_UNIT() );
#387 = UNCERTAINTY_MEASURE_WITH_UNIT(LENGTH_MEASURE(2.E-05),#384,
'distance_accuracy_value','confusion accuracy');
#388 = PRODUCT_TYPE('part',$,(#7));
#389 = MECHANICAL_DESIGN_GEOMETRIC_PRESENTATION_REPRESENTATION('',(#390,
#398,#405,#413,#420,#427),#383);
#390 = STYLED_ITEM('color',(#391),#17);
#391 = PRESENTATION_STYLE_ASSIGNMENT((#392));
#392 = SURFACE_STYLE_USAGE(.BOTH.,#393);
#393 = SURFACE_SIDE_STYLE('',(#394));
#394 = SURFACE_STYLE_FILL_AREA(#395);
#395 = FILL_AREA_STYLE('',(#396));
#396 = FILL_AREA_STYLE_COLOUR('',#397);
#397 = COLOUR_RGB('',0.824000000954,0.819999992847,0.78100001812);
#398 = STYLED_ITEM('color',(#399),#34);
#399 = PRESENTATION_STYLE_ASSIGNMENT((#400));
#400 = SURFACE_STYLE_USAGE(.BOTH.,#401);
#401 = SURFACE_SIDE_STYLE('',(#402));
#402 = SURFACE_STYLE_FILL_AREA(#403);
#403 = FILL_AREA_STYLE('',(#404));
#404 = FILL_AREA_STYLE_COLOUR('',#397);
#405 = STYLED_ITEM('color',(#406),#166);
#406 = PRESENTATION_STYLE_ASSIGNMENT((#407));
#407 = SURFACE_STYLE_USAGE(.BOTH.,#408);
#408 = SURFACE_SIDE_STYLE('',(#409));
#409 = SURFACE_STYLE_FILL_AREA(#410);
#410 = FILL_AREA_STYLE('',(#411));
#411 = FILL_AREA_STYLE_COLOUR('',#412);
#412 = COLOUR_RGB('',0.809000015259,0.425999999046,0.148000001907);
#413 = STYLED_ITEM('color',(#414),#267);
#414 = PRESENTATION_STYLE_ASSIGNMENT((#415));
#415 = SURFACE_STYLE_USAGE(.BOTH.,#416);
#416 = SURFACE_SIDE_STYLE('',(#417));
#417 = SURFACE_STYLE_FILL_AREA(#418);
#418 = FILL_AREA_STYLE('',(#419));
#419 = FILL_AREA_STYLE_COLOUR('',#412);
#420 = STYLED_ITEM('color',(#421),#347);
#421 = PRESENTATION_STYLE_ASSIGNMENT((#422));
#422 = SURFACE_STYLE_USAGE(.BOTH.,#423);
#423 = SURFACE_SIDE_STYLE('',(#424));
#424 = SURFACE_STYLE_FILL_AREA(#425);
#425 = FILL_AREA_STYLE('',(#426));
#426 = FILL_AREA_STYLE_COLOUR('',#397);
#427 = STYLED_ITEM('color',(#428),#374);
#428 = PRESENTATION_STYLE_ASSIGNMENT((#429));
#429 = SURFACE_STYLE_USAGE(.BOTH.,#430);
#430 = SURFACE_SIDE_STYLE('',(#431));
#431 = SURFACE_STYLE_FILL_AREA(#432);
#432 = FILL_AREA_STYLE('',(#433));
#433 = FILL_AREA_STYLE_COLOUR('',#397);
ENDSEC;
END-ISO-10303-21;
